PrimaNota.ru - самый крупный в мире бесплатный архив песенных текстов, аккордов, табулатур и нот


Misc Cartoons - My Little Pony Friendship Is Magic - Ballad Of Rarity - таба, видео

Регистрация Запомнить меня
Войти через:  Facebook Google Twitter Vk Yandex Mail.ru

Misc Cartoons - My Little Pony Friendship Is Magic - Ballad Of Rarity - таба, видео

Печатать
Просмотров: 41
Title: Ballad of Rarity
SubTitle: (C suspended 2 - CGDGCD) Careful tuning B up to C
Artist: Mezzo Forte
Album: Everypony Sings (www.everyponysings.com)
Copyright: Creative Commons!
Instructions: Although listed as C tuning this is actually Csus2 tuning UGC did not have the
required tuning so C is close but not quite
Tempo = 120
Steel Guitar

Legend
L - tied note
x - dead note
h - hammer on/pull off
b - bend
s - slide
~ - vibrato
g - ghost note
> - accentuated note
t - trill
M - palm mute
. - staccato
P - popping (bass)
S - slapping (bass)
+ - tapping
W - wide vibrato
< - fade in
w - whammy bar
= - tremolo picking
v - brush up
^ - brush down
V - pick stroke up
n - pick stroke down


D |-----------0--0h-2L-2L-2----|--5L-5L-5--5--0L-0L-0--0----|
C |--0-----0-------------------|----------------------------|
G |-----------------------0----|--------0-------------------|
D |--------------------2-------|-----0--------------0-------|
G |----------------------------|-----------------0----------|
C |--------------0-------------|--5-----------0-------------|


--2--------0-----7----------|--7--9-----5--2--5L----5----|
--------------0-------------|----------------------------|
--------0--------5-----5----|----------------------------|
-----0--------------7-------|--------0--------------0----|
--2-------------------------|----------------------------|
-----------------5----------|-----5-----------5----------|


--------5-------------------|-----0--0h-2L-2L-2--5L-5L---|
-----0-----0--------0L-0----|--0-------------------------|
--4-----------4-------------|-----------------0----------|
-----------------5----------|--------------2--------0----|
--0L-0L-0L-0L-0L-0----------|----------------------------|
----------------------------|--------0-----------5-------|


--5--5--0L-0L-0--0--2-------|-----0-----------0--2--5L---|
----------------------------|--------0--0--0-------------|
--0-------------------------|--0-------------------------|
--------------0--------0----|----------------------------|
-----------0--------2-------|-----------------------2----|
--------0-------------------|--------------4-------------|


--5L-5--2--0-----0h-2h-0----|----------------------------|
--------------0-------------|--0-------------------------|
-----0----------------------|----------------------------|
--0-------------------------|----------------------------|
----------------------------|----------------------------|
--------------0-------------|-----0L----0L----------0----|


--------------0--0h-2L-2L---|--2--5L-5L-5--5--0L-0L-0----|
-----0-----0----------------|----------------------------|
----------------------------|--0--------0----------------|
-----------------------2----|--------0--------------0----|
----------------------------|--------------------0-------|
-----------------0----------|-----5-----------0----------|


--0--2--------0-----7-------|-----7--9-----5--2--5L------|
-----------------0----------|----------------------------|
-----------0--------5-------|--5-------------------------|
--------0--------------7----|-----------0----------------|
-----2----------------------|----------------------------|
--------------------5-------|--------5-----------5-------|


--5--------5----------------|--------0--0h-2L-2L-2--5L---|
--------0-----0--------0L---|--0--0----------------------|
-----4-----------4----------|--------------------0-------|
--0-----------------5-------|-----------------2----------|
-----0L-0L-0L-0L-0L-0-------|----------------------------|
----------------------------|-----------0-----------5----|


--5L-5--5--0L-0L-0--0--2----|--------0-----------0--2----|
----------------------------|-----------0--0--0----------|
-----0----------------------|-----0----------------------|
--0--------------0----------|--0-------------------------|
--------------0--------2----|----------------------------|
-----------0----------------|-----------------4----------|


--5L-5L-5--2--0-----0h-2h---|--0-------------------------|
-----------------0----------|-----0----------------------|
--------0-------------------|----------------------------|
-----0----------------------|----------------------------|
--2-------------------------|----------------------------|
-----------------0----------|--------0L----0-------------|


--10-------9--------7-------|-----------------------5----|
-----------------------7L---|--7-------------------------|
--------0--------0----------|-----9--------7-------------|
-----0--------0-------------|-----------------10---------|
-----------------------0----|-----------0----------------|
--9L-9L-9L-9----------------|--------0-----------0-------|


--------5--3--------3--5----|-----------5-----------10---|
-----------------4----------|--------0-----0-------------|
-----0----------------------|-----4-----------4----------|
--0-------------------------|--0-----------------5-------|
-----------------------0----|----------------------------|
--------5-------------------|-----------------------9L---|


--------9--------7----------|--------------------5-------|
--------------------7L-7----|----------------------------|
-----0--------0-------------|--9--------7----------------|
--0--------0----------------|--------------10-------0----|
--------------------0-------|--------0-------------------|
--9L-9L-9-------------------|-----0-----------0----------|


-----5--3-----2-----0L-0L---|--0L-0L-0L-0----------------|
----------------------------|--------0-------------------|
--0-------------------------|-----0-----0-----------4----|
----------------------------|--0-----------0-----0-------|
-----------------------0----|-----------------0----------|
-----5--------------0-------|----------------------------|


-----5----------------------|--------0--0h-2L-2L-2--5L---|
--0-----0--------------0L---|--0--0----------------------|
-----------4----------------|--------------------0-------|
--------------5-------------|-----------------2----------|
-----------------0----------|----------------------------|
--------------------0L-0L---|--0--------0-----------5----|


--5L-5--5--0L-0L-0--0--2----|--------0-----7--------7----|
----------------------------|-----------0----------------|
-----0----------------------|-----0--------5-----5-------|
--0--------------0----------|--0--------------7----------|
--------------0--------2----|----------------------------|
-----------0----------------|--------------5-------------|


--9-----5--2--5L----5-------|-----5----------------------|
----------------------------|--0-----0--------0L-0--0----|
-----------------------4----|-----------4----------------|
-----0--------------0-------|--------------5-------------|
-----------------------0L---|--0L-0L-0L-0L-0-------------|
--5-----------5-------------|----------------------------|


--0--0h-2L-2L-2--5L-5L-5----|--5--0L-0L-0--0--2----------|
----------------------------|----------------------------|
--------------0--------0----|-----------------------0----|
-----------2--------0-------|-----------0--------0-------|
----------------------------|--------0--------2----------|
-----0-----------5----------|-----0----------------------|


--0-----------0--2--5L-5L---|--5--2--0-----0h-2h-0-------|
-----0--0--0----------------|-----------0-----------0L---|
----------------------------|--0-------------------------|
-----------------------0----|----------------------------|
--------------------2-------|----------------------------|
-----------4----------------|-----------0----------------|


--------0--2--5L-5L-5--2----|--0-----0h-2h-0-------------|
--0--0----------------------|-----0-----------0L-0L-0L---|
--------------------0-------|----------------------------|
-----------------0----------|----------------------------|
--------------2-------------|----------------------------|
-----4----------------------|-----0----------------------|


--------0--2--5L----5L-5----|
--0--0----------------------|
-----------------------0----|
--------------------0-------|
--------------2-------------|
-----4----------------------|


--2L----2--0-----------------0h-------2L----2h-0L---|
--------------------0-------------------------------|
----------------------------------------------------|
----------------------------------------------------|
----------------------------------------------------|
--------------------0-------------------------------|


--0-------------------------------------------------|
--------0L-------0L----------0L-------0L-0L-0L------|
----------------------------------------------------|
----------------------------------------------------|
----------------------------------------------------|
--------0L-------0L----------0L-------0L-0L-0L------|


----------------------------------------------------|
--0L-0----------------------------------------------|
----------------------------------------------------|
----------------------------------------------------|
----------------------------------------------------|
--0L-0----------------------------------------------|
Добавлено: 18.04.2016
Другие материалы по этой песне:

Страница создана 18.04.2016
http://primanota.ru/misc-cartoons/my-little-pony-friendship-is-magic-ballad-of-rarity-chords.htm
Привет, Гость.
Предлагаем пройти революционный курс по гитаре.
Подарок от PrimaNota.Ru, забирай!