PrimaNota.ru - самый крупный в мире бесплатный архив песенных текстов, аккордов, табулатур и нот


Misc Cartoons - My Little Pony Friendship Is Magic - Apples To The Core - таба, видео

Регистрация Запомнить меня
Войти через:  Facebook Google Twitter Vk Yandex Mail.ru

Misc Cartoons - My Little Pony Friendship Is Magic - Apples To The Core - таба, видео

Печатать
Просмотров: 65
Title: Apples to the Core
SubTitle: Season 4 : Episode 9 - Pinkie Apple Pie
Artist: Daniel Ingram and Megan McCarthy
Album: My Little Pony -  Friendship is Magic
Tabber: Mezzo Forte
Tempo = 120
Steel Guitar
Info - This took about 2 weeks to tab out in fingerstyle lots of slides, (L) tied notes 
as well watch for
durations! if this is confusing download my GPX version of this :D cheers!

Legend
L - tied note
x - dead note
h - hammer on/pull off
b - bend
s - slide
~ - vibrato
g - ghost note
> - accentuated note
t - trill
M - palm mute
. - staccato
P - popping (bass)
S - slapping (bass)
+ - tapping
W - wide vibrato
< - fade in
w - whammy bar
= - tremolo picking
v - brush up
^ - brush down
V - pick stroke up
n - pick stroke down

   (instrument break opening)
E |--3-----3--3--3-----5-----3-----0-------------------|
B |--------------------------------------1-------------|
G |--------------------------------------------2-------|
D |----------------------------------------------------|
A |----------------------------------------------------|
E |----------------------------------------------------|


--------------------------0-----------------3-------|
--1-----1--1--1-----3-------------------------------|
----------------------------------------------------|
----------------------------------------------------|
----------------------------------------------------|
----------------------------------------------------|


--3--3--3-----5-----3-----0-------------------------|
--------------------------------1-----------1-------|
--------------------------------------2-------------|
----------------------------------------------------|
----------------------------------------------------|
----------------------------------------------------|


----------------------------------------------------|
--1--1--1-----3-----1-----------------------1-------|
----------------------------------------------------|
----------------------------------------------------|
----------------------------------------------------|
----------------------------------------------------|

(we've traveled...)
           ^  v        ^
-----------0--0--------0----|
--1--1-----1--1--1-----1----|
-----------0--0--------0----|
--------2-----------2-------|
-----3-----3-----3-----3----|
----------------------------|

(of generations...)
  v                                            ^
--0-----1-----------3s-5-----------3-----------3L---|
--1-----0--------------------------------------0L---|
--0--------------------------------------------0L---|
-----------------------------------------------0L---|
-----------------------------------------2-----2L---|
--------3-----------3s-5-----------3-----------3L---|

     (joined by a common...)
--3--0-----1-----------3s-5-----------3-------------|
--0--------0----------------------------------------|
--0-------------------------------------------------|
--0-------------------------------------------------|
--2-----------------------------------------2-------|
--3--------3-----------3s-5-----------3-------------|
                                  (we sing our....)
  ^                 ^          ^           ^  v
--3--0--0-------------------|--------------0--0----------|
--0-----------3-----3-------|--3--1--1-----1--1--1-------|
--0-----------------0-------|--0-----------0--0----------|
--0--------------0--0--0----|--0--------2-----------2----|
--2-----------2-----2-------|--2-----3-----3-----3-------|
--3-------------------------|----------------------------|
             (across the pony nation...)
  ^     v
--0-----0-----1-----------3s-5-----------3L-3-------|
--1-----1-----0-------------------------------------|
--0-----0-------------------------------------------|
----------------------------------------------------|
--3--------------------------------------------2L---|
--------------3-----------3s-5-----------3L-3-------|

     ^                       ^
-----3-----0-----0-----------0-----0-----0L---------|
-----0-----------1-----------1----------------------|
-----0----------------------------------------------|
-----0-----------------2----------------------------|
--2--2-----------3-----------3----------------------|
-----3----------------------------------------------|


--0--------------------------------------0----------|
-----3L----3-----1-----------------1-----------1----|
-----0-----------0----------------------------------|
-----0L----0-----2-----------2----------------------|
-----2-----------3----------------------------------|
----------------------------------------------------|

          (we're apples forever....)

-----------1-----1L----1-----1-----1-----0----------|
-----------------------------------------------1L---|
--0-------------------------------------------------|
-----2----------------------------------------------|
-----------------------2-----------2-----------3L---|
-----------------3-----------3----------------------|

           ^          (apples together)
-----------------------1-----1-----3s-5-------------|
--1--------1----------------------------------------|
-----------0----------------------------------------|
-----2-----2----------------------------------------|
--3--------3----------------------------------------|
-----------------------3-----3-----3s-5-------------|

              ^
--3L-3--------3-----0-----1-----------3s-5L----5L---|
--------------0-------------------------------------|
--------------0-------------------------------------|
--------------0-------------------------------------|
--------2L-2--2-------------------------------------|
--3L-3--------3-----------3-----------3s-5L----5L---|

                 ^
--5--3L-3--------3-----0-----0----------------------|
-----------------0-----------------------3L---------|
-----------------0-----------------------0----------|
-----------------0-----------------------0----------|
-----------2L-2--2-----------------------2----------|
--5--3L-3--------3----------------------------------|

                 (no matter...)
-----------------0-----1-----1-----1-----------0L---|
--3--3----------------------------------------------|
-----0----------------------------------------------|
-----0----------------------------------------------|
-----2-----------------------2-----------------3L---|
-----------------------3-----------3----------------|


--0L-------0-----0-----1--------3s-5L----5L-5--3L---|
-----------3----------------------------------------|
----------------------------------------------------|
-----------0----------------------------------------|
--3L-------3-----------2----------------------------|
-----------------------3--------3s-5L----5L-5--3L---|

           ^      (we're apples to...)
--3--------3-----0-----0-----------0-----0-----0L---|
-----------0----------------------------------------|
-----------0----------------------------------------|
-----------0-----------2-----------------2----------|
-----2L-2--2-----3-----------------3-----------3L---|
--3--------3----------------------------------------|


--0L-0-----------------------------------0----------|
-----------3-----------1-----------1-----------1----|
----------------------------------------------------|
-----------0-----------2----------------------------|
--3--------2-----------3----------------------------|
----------------------------------------------------|

           (there's no place...)
                       ^     v                 ^
-----------------------0-----0-----------------0L---|
-----------1-----------1-----1-----1-----------1L---|
--0--------------------0-----0-----------------0L---|
-----2-----------2-----------------------2----------|
-----------3-----------3-----------3-----------3L---|
----------------------------------------------------|

     v
--0--0-----1-----------3s-5-----------3-------------|
--1--1-----0----------------------------------------|
--0--0----------------------------------------------|
----------------------------------------------------|
--3-----------------------------------------2-------|
-----------3-----------3s-5-----------3-------------|

        (than traveling....)
 ^
--3L-3--0-----1-----------3s-5-----------3----------|
--0L-0--------0-------------------------------------|
--0L-0----------------------------------------------|
--0L-0----------------------------------------------|
--2L-2-----------------------------------------2L---|
--3L-3--------3-----------3s-5-----------3----------|

     ^                                   ^
-----3-----0-----0----------------------------------|
-----0-----------------------3-----------3----------|
-----0-----------------------------------0----------|
-----0-----------------------------0-----0-----0L---|
--2--2-----------------------2-----------2----------|
-----3----------------------------------------------|

          (friends all around...)
     ^                       ^     v
-----------------------------0-----0----------------|
-----3-----1-----1-----------1-----1-----1----------|
-----0-----------------------0-----0----------------|
--0--0-----------------2-----------------------2L---|
-----2-----------3-----------3-----------3----------|
----------------------------------------------------|

     ^     v
-----0-----0-----1-----------3s-5-----------3L-3----|
-----1-----1-----0----------------------------------|
-----0-----0----------------------------------------|
--2-------------------------------------------------|
-----3----------------------------------------------|
-----------------3-----------3s-5-----------3L-3----|

        ^                       ^
--------3-----0-----0-----------0-----0-----0L------|
--------0-----------1-----------1-------------------|
--------0-------------------------------------------|
--------0-----------------2-------------------------|
--2L-2--2-----------3-----------3-------------------|
--------3-------------------------------------------|


--0L-0--------------------------------------0-------|
--------3L----3-----1-----------------1-------------|
--------0-----------0-------------------------------|
--------0L----0-----2-----------2-------------------|
--------2-----------3-------------------------------|
----------------------------------------------------|


              (we're apples...)
--------------1-----1L----1-----1-----1-----0-------|
--1-------------------------------------------------|
-----0----------------------------------------------|
--------2-------------------------------------------|
--------------------------2-----------2-------------|
--------------------3-----------3-------------------|

              ^
--------------------------1-----1-----3s-5L---------|
--1L-1--------1-------------------------------------|
--------------0-------------------------------------|
--------2-----2-------------------------------------|
--3L-3--------3-------------------------------------|
--------------------------3-----3-----3s-5L---------|

                      (we're family...)
                 ^
--5--3L-3--------3-----0-----1-----------3s-5L------|
-----------------0----------------------------------|
-----------------0----------------------------------|
-----------------0----------------------------------|
-----------2L-2--2----------------------------------|
--5--3L-3--------3-----------3-----------3s-5L------|


                    ^
--5L-5--3L-3--------3-----0-----0-------------------|
--------------------0-----------------------3L------|
--------------------0-----------------------0L------|
--------------------0-----------------------0L------|
--------------2L-2--2-----------------------2L------|
--5L-5--3L-3--------3-------------------------------|

                          (no matter...)
--------------------0-----1-----1-----1-------------|
--3L-3--3-------------------------------------------|
--0-----0-------------------------------------------|
--0-----0-------------------------------------------|
--2-----2-----------------------2-------------------|
--------------------------3-----------3-------------|


--0L-0L-------0-----0-----1--------3s-5L----5L-5----|
--------------3-------------------------------------|
----------------------------------------------------|
--------------0-------------------------------------|
--3L-3L-------3-----------2-------------------------|
--------------------------3--------3s-5L----5L-5----|

                    (we're apples...)
              ^
--3L-3--------3-----0-----0-----------0-----0-------|
--------------0-------------------------------------|
--------------0-------------------------------------|
--------------0-----------2-----------------2-------|
--------2L-2--2-----3-----------------3-------------|
--3L-3--------3-------------------------------------|


--0L-0L-0-----------------------------------0-------|
--------------3-----------1-----------1-------------|
----------------------------------------------------|
--------------0-----------2-------------------------|
--3L-3--------2-----------3-------------------------|
----------------------------------------------------|

              (we're peas in a pod...)
--------------0-----1-----------1-----1-----5L------|
--1-----------------3-------------------------------|
-----0--------------3-------------------------------|
--------2-----------3-----------------3-------------|
--------------------1-----------1-------------------|
----------------------------------------------------|


--5L-5--5-----------3-----------5-----------3L------|
----------------------------------------------------|
----------------------------------------------------|
--------------------------------------------3L------|
--------------------1-----------------------1L------|
----------------------------------------------------|

                                         ^           v
--3L----3--------1-----------------------1-----------1-----------1-----------1--|
-----------------3-----------------------3-----------3--------------------------|
--------------------------------------------------------------------------------|
--3L----3--------------------3-----------------------------------3--------------|
--1L----1--------1-----------------------1-----------1-----------------------1--|
--------------------------------------------------------------------------------|


---------1L---------|
--------------------|
--------------------|
---------3----------|
--------------------|
--------------------|


--1--1-----------3-----------5-----------------------3-----------------------3--|
--------------------------------------------------------------------------------|
--------------------------------------------------------------------------------|
--------------------------------------------------------------------------------|
-----3-----------------------------------------------1--------------------------|
--------------------------------------------------------------------------------|


---------------5L---|
--------------------|
--------------------|
--------------------|
--------------------|
--------------------|


--5--------5-----------5-----------5-----------------------3-----------0--------|
--------------------------------------------------------------------------------|
--------------------------------------------------------------------------------|
--------------------------------------------------------------------------------|
-----------3-----------------------------------------------1--------------------|
--------------------------------------------------------------------------------|


---------------1L---|
--------------------|
--------------------|
--------------------|
--------------------|
---------------3----|


--1L----------1--------5-----------------------3-----------------------0--------|
--------------------------------------------------------------------------------|
--------------------------------------------------------------------------------|
--------------------------------------------------------------------------------|
--------------------------------------------------------------------------------|
-----------------------5-----------------------3--------------------------------|


---------------0L---|
--------------------|
--------------------|
--------------------|
---------------3----|
--------------------|
              (you're always welcome....)

--0L----------0-----------------------------------------------------------------|
-----------------------3-----------------------3-----------3-----------3--------|
--------------------------------------------------------------------------------|
-----------------------------------------------0-----------------------0--------|
-----------------------2-----------------------------------2--------------------|
--------------------------------------------------------------------------------|


---------------3L---|
---3----------------|
--------------------|
--------------------|
---2----------------|
---------------3----|


--3L----------3--------5-----------------------3L-3L----------3L----3--3--------|
--------------------------------------------------------------------------------|
--------------------------------------------------------------------------------|
--------------------------------------------------------------------------------|
--------------------------------------------------------------------------------|
-----------------------5-----------------------3--------------------------------|

    (scale down!)
---1-----0----------|
---------------3L---|
--------------------|
--------------------|
--------------------|
--------------------|

                                                (D major change)
--------------------------------------------------------------------------------|
--3--1L-1--0--------------------------------------------------------------------|
-----------------2-----0--------------------------------------------------------|
--------------------------------------------------------------------------------|
--------------------------------------------------------------------------------|
-----------------------------------------------0-----------2-----------4--------|

  (you're more..)
---2----------------|
---3----------------|
---------------2L---|
--------------------|
---0----------------|
--------------------|

                                                           (the color...)
-----------2-----------2-----------2-----------------------2-----------5--------|
-----------3-----------------------3-----------------------3--------------------|
--2-----------------------------------------------------------------------------|
-----------0-----------------------0--------------------------------------------|
-----------------------0--------------------------------------------------------|
--------------------------------------------------------------------------------|

  (pink)
---7L----------7L---|
--------------------|
--------------------|
--------------------|
---5L----------5L---|
--------------------|
                                                         (or balloons flying..)

--7--------7-----------------------5-----------------------------------5--------|
-----------------------------------7-----------------------7--------------------|
--------------------------------------------------------------------------------|
--------------------------------------------------------------------------------|
--5--------------------------------5--------------------------------------------|
--------------------------------------------------------------------------------|


---7L----------7L---|
--------------------|
---7L----------7L---|
---7L----------7L---|
---5L----------5L---|
--------------------|


--7--------7-----------------------5--------------------------------------------|
-----------------------------------7-----------------------7--------------------|
--7-----------------------------------------------------------------------------|
--7-----------------------------------------------------------------------------|
--5--------------------------------5--------------------------------------------|
--------------------------------------------------------------------------------|


--------------------|
---7L----------7L---|
--------------------|
--------------------|
---5----------------|
--------------------|

                                                                       (the love..)
--------------------------------------------------------------------------------|
--7--------7-----------------------5-----------------------5--------------------|
-----------------------------------------------------------------------2--------|
-----------------------------------7-----------------------7--------------------|
-----------------------------------7-----------7-----------7--------------------|
-----------------------------------5-----------------------5--------------------|


--------------------|
---3----------------|
---2-----------2L---|
---0----------------|
--------------------|
--------------------|

          (i feel here...)
-----------2-----------------------------------------------2-----------5--------|
-----------3-----------------------3-----------------------3--------------------|
--2--------------------2-----------2-----------2--------------------------------|
-----------------------------------0--------------------------------------------|
--------------------------------------------------------------------------------|
--------------------------------------------------------------------------------|

  (swim not..)
---7----------------|
--------------------|
---------------7L---|
--------------------|
---5----------------|
--------------------|

                                   (sink)
-----------7-----------------------5-----------------------------------5--------|
-----------------------------------------------------------7--------------------|
--7--------------------7-----------------------7--------------------------------|
--------------------------------------------------------------------------------|
-----------5-----------------------------------------------------------5--------|
--------------------------------------------------------------------------------|


---7----------------|
---------------7L---|
--------------------|
--------------------|
--------------------|
--------------------|
         (party      across      this                    land)

-----------7-----------------------5-----------------------2--------------------|
--7--------------------7-----------------------------------3--------------------|
-----------------------------------------------------------------------2--------|
--------------------------------------------------------------------------------|
-----------5-----------------------5--------------------------------------------|
--------------------------------------------------------------------------------|


---0L----------0L---|
---3L----------3L---|
--------------------|
--------------------|
--------------------|
--------------------|
                                                         (we're apples)

--0--------------------------------------------------------1-----------1L-1L----|
--3--------------------3--------------------------------------------------------|
-----------2L-2--------2--------------------------------------------------------|
-----------------------0--------------------------------------------------------|
--------------------------------------------------------------------------------|
-----------------------------------------------------------------------3L-3-----|


---1-----------1L---|
--------------------|
--------------------|
--------------------|
---2----------------|
---------------3L---|
 (apples together...)
                                                           ^
--1--------1-----------0--------------------------------------------------------|
-----------------------------------1L----1-----------------1L----------1L-1-----|
-----------------------------------------------------------0L----------0L-0-----|
-----------------------------------------------2-----------2L----------2L-2-----|
-----------2-----------------------3L----3-----------------3L----------3L-3-----|
--3-----------------------------------------------------------------------------|


---1-----------1L---|
--------------------|
--------------------|
--------------------|
--------------------|
---3-----------3L---|

                                                                 ^
--1--------3s----5-----------------------3L----3-----------------3L-------3--0--|
-----------------------------------------------------------------0L-------0-----|
-----------------------------------------------------------------0L-------0-----|
-----------------------------------------------------------------0L-------0-----|
-----------------------------------------------------2L----2-----2L-------2-----|
--3--------3s----5-----------------------3L----3-----------------3L-------3-----|


---------1L---------|
--------------------|
--------------------|
--------------------|
--------------------|
---------3L---------|

(we're family but so....)                                                                
      ^
--1L----------1--3s----5L----------5L----5-----3L----3-----------------3L-3-----|
-----------------------------------------------------------------------0L-0-----|
-----------------------------------------------------------------------0L-0-----|
-----------------------------------------------------------------------0L-0-----|
-----------------------------------------------------------2L----2-----2L-2-----|
--3L----------3--3s----5L----------5L----5-----3L----3-----------------3L-3-----|


---0-----------0L---|
--------------------|
--------------------|
--------------------|
--------------------|
--------------------|
                                                                      (no matter..)

--0L----------0--------------------------------------------------------0L-0-----|
-----------------------3L----------------3-----3--------------------------------|
-----------------------0-----------------------0--------------------------------|
-----------------------0-----------------------0--------------------------------|
-----------------------2-----------------------2--------------------------------|
--------------------------------------------------------------------------------|


---1-----------1L---|
--------------------|
--------------------|
--------------------|
---------------2L---|
---3----------------|


--1--------1-----------------------0L----0L----------------0-----------0L-0-----|
-----------------------------------------------------------3--------------------|
--------------------------------------------------------------------------------|
-----------------------------------------------------------0--------------------|
--2--------------------------------3L----3L----------------3--------------------|
-----------3--------------------------------------------------------------------|


---1L----------1L---|
--------------------|
--------------------|
--------------------|
---2L----------2L---|
---3L----------3L---|

(face the weather....)                                                           ^
--1--3s----5L----------5L----5-----3L----3-----------------3-----------0L-0-----|
-----------------------------------------------------------0--------------------|
-----------------------------------------------------------0--------------------|
-----------------------------------------------------------0--------------------|
--2--------------------------------------------2L----2-----2-----------3L-3-----|
--3--3s----5L----------5L----5-----3L----3-----------------3--------------------|


---0L----------0L---|
--------------------|
--------------------|
---2L----------2L---|
--------------------|
--------------------|
(we're apples to the core..)

--0--------0-----------0-----------0L----0L----0--------------------------------|
-----------------------------------------------------------3L----------3L-3-----|
--------------------------------------------------------------------------------|
--2--------------------2-----------------------------------0L----------0L-0-----|
-----------3-----------------------3L----3-----------------2L----------2L-2-----|
--------------------------------------------------------------------------------|


--------------------|
---1L----------1L---|
--------------------|
---2L----------2L---|
---3L----------3L---|
--------------------|


-----------------------------------0--------------------------------------------|
--1--------------------1L-1--------------------1-----------------------1L-1L----|
-----------------------------------------------------0-----------------0L-0L----|
--2--------2-----------------------------------------------2-----------2L-2L----|
--3--------------------------------------------------------------------3L-3L----|
--------------------------------------------------------------------------------|


--------------------|
--------------------|
--------------------|
--------------------|
--------------------|
--------------------|


--------------------------------------------------------------------------------|
--1L----------1-----------------------------------------------------------------|
--0L----------0-----------------------------------------------------------------|
--2L----------2-----------------------------------------------------------------|
--3L----------3-----------------------------------------------------------------|
--------------------------------------------------------------------------------|


--------------------|----||
--------------------|----||
--------------------|----||
--------------------|----||
--------------------|----||
--------------------|----||
Добавлено: 20.03.2016
Другие материалы по этой песне:

Страница создана 20.03.2016
http://primanota.ru/misc-cartoons/my-little-pony-friendship-is-magic-apples-to-core-chords.htm
Привет, Гость.
Предлагаем пройти революционный курс по гитаре.
Подарок от PrimaNota.Ru, забирай!