PrimaNota.ru - самый крупный в мире бесплатный архив песенных текстов, аккордов, табулатур и нот


Mindless Self Indulgence - How I Learned To Stop Giving A Shit And Love Mindless Self Indulgence (album) - бас-таба, видео

Регистрация Запомнить меня
Войти через:  Facebook Google Twitter Vk Yandex Mail.ru

Mindless Self Indulgence - How I Learned To Stop Giving A Shit And Love Mindless Self Indulgence (album) - бас-таба, видео

Печатать
Просмотров: 119
Mindless Self Indulgence
How I Learned to Stop Giving a Shit and Love Mindless Self Indulgence

If there are any mistakes, let me know!
enjoy!

I tabbed everything myself except Ala Mode. The original tab can be found here:
http://tabs.ultimate-guitar.com/m/mindless_self_indulgence/ala_mode_ver2_btab.htm

1. Witness
2. Fuck Machine (tabbed by lindseygay i edit )
3. It Gets Worse
4. I Want to Be Black
5. Hey Tomorrow Fuck You and Your Friend Yesterday
6. You're No Fun Anymore Mark Trezona
7. Ala Mode 
8. Casio
9. Anonymous
10. Kill You All in a Hip Hop Rage
11. Stalkers (Slit My Wrists)
12. Jack You Up
13. Ass Backwards


1. Witness

Verse
G|--------------------------|
D|--------------------------|
A|--9-9-12-12-11-11-11-9----| x8
E|--------------------------|

Chorus
G|-------------------------------------------|
D|-------------------------------------------|
A|---8(x16)-5(x16)---------------------------| 
E|-----------------7(x16)-9(x8)-7(x8)--------|

G|-------------------------------------------|
D|-------------------------------------------|
A|---8(x16)-5(x16)---------------------------| 
E|-----------------7(x16)-9(x8)-7(x4)--------|


Play Verse x8 (there is a pause after the 4th time)

Play Chorus

Bridge
G|-----------|
D|-----------|
A|--9--------|
E|----10-9---| x3

G|-----------|
D|-----------|
A|-----------|
E|---9--9----|

G|--------------------------|
D|--------------------------|
A|--9(x8)-------------------|
E|---------10(x8)-9(x8)-----| x2

Play Chorus x3

----------------------------------------------------------


2. Fuck Machine

Chorus
G|--------------------------------------|
D|--------------------------------------|
A|------------6666-6666-----------------| x4 
E|--3333-6666-----------1111-3333333----|


Verse ("now we don't care if you're a...")
G|--------------------------------------|
D|--------------------------------------|
A|------------6666-6666-----------------| x2
E|--3333-6666-----------1111-3333333----|


Chorus
G|--------------------------------------|
D|--------------------------------------|
A|------------6666-6666-----------------| x4
E|--3333-6666-----------1111-3333333----|


Bridge 
G|----------------------------------------|
D|----------------------------------------|
A|------------6-6-6-6-6-6-----------------| x2
E|--3-3-6-6---------------1-1-3-3-3-3-----|

G|-------------------------------------|
D|-------------------------------------|
A|-----------666-66-666----------------| x2
E|--333-66-6------------11-1-333-33----|

G|----------------|
D|----------------|
A|-----6---6---6--|
E|---3---3---3----|

G|--------------------------------------|
D|--------------------------------------|
A|------------6666-6666-----------------| x2
E|--3333-6666-----------1111-3333333----|


Chorus
G|--------------------------------------|
D|--------------------------------------|
A|------------6666-6666-----------------| x2
E|--3333-6666-----------1111-3333333----|


End
G|-----------------|
D|-----------------|
A|------6--6-------|
E|----3--3---3-----|

----------------------------------------------------------


3. It Gets Worse

Verse (11's not 1's)
G|---------------------------|
D|---------------------------|
A|--66666-99999-1111111111---| x4
E|---------------------------|

Chorus
G|-----------------------------|
D|-----------------------------|
A|---666-444-222---------------| x6
E|---------------444-222222----|

Play Verse 4 times

Play Chorus 6 times

Bridge
G|-------------------------------------------------|
D|-------------------------------------------------|
A|--666-45666-45666-65222-01222-01222-23444-23444--|
E|-------------------------------------------------|

G|--------------------------------------|
D|--------------------------------------|
A|--456-456-456-652-012-234-234-456-----|
E|--------------------------------------|

G|----------------------------------------|
D|----------------------------------------|
A|--66666666-22222222-44444444-66666666---| x4 
E|----------------------------------------|


Play chorus 6 times

----------------------------------------------------------


4. I Want to Be Black

Intro
G|----------------------|
D|----------------------|
A|--99-77---------------|
E|--------5555-777------| x3

G|-------------------------|
D|-------------------------|
A|--9999999999-7777777777--|
E|-------------------------| 


Verse
G|-----------|
D|-----------|
A|-----------|
E|-5--7--9---| x4

G|--------------------------|
D|--------------------------|
A|--------------------------|
E|--5555-7777-99999999------| x2

G|-----------|
D|-----------|
A|-----------|
E|-5--7--9---| x2


Repeat everything above


Bridge
G|---------------|
D|---------------|
A|--------9--7---| x4
E|--9--7---------|

G|----------------|
D|----------------|
A|----------------| x4
E|--5--7--9-9-9---|

G|--------------------------|
D|--------------------------|
A|--------------------------|
E|--5555-7777-99999999------| x2

G|---------------|
D|---------------|
A|---------------|
E|--55-77-999----| x4

G|----------------------|
D|----------------------|
A|----------------------|
E|--9-9-9-9-9-9-9-9-9---|


----------------------------------------------------------


5. Hey Tomorrow Fuck You and Your Friend Yesterday


Verse
G|---------------------------66666666----|
D|----------44444444-66666666------------|
A|--44444444-----------------------------|
E|---------------------------------------|

G|---------------------------(pause)-----|
D|----------44444444-66666666------------|
A|--44444444-----------------------------| x2
E|---------------------------------------|

G|--------|
D|--------|
A|--4*----|
E|--------|

Chorus
G|--------------6-------------|
D|------4-4-6-6---6-4-4-6-6---|
A|--4-4-----------------------| x2
E|----------------------------|

G|--------|
D|--------|
A|--4*----|
E|--------|


Repeat everything again


Bridge
G|--------------|
D|------666-44--|
A|--4*----------| x7
E|--------------|

G|-------------------------------|
D|-------------------------------|
A|--44444444-22222222-00000000---| x3
E|-------------------------------|

G|--------|
D|--------|
A|--4*----|
E|--------|


Play chorus 2 times


----------------------------------------------------------


6. You're No Fun Anymore Mark Trezona

Intro
G|--------------|
D|--------------|
A|------6666----|
E|--444---------|

Verse 1(play whole verse twice)
G|-----------------|
D|-----------------|
A|---1/3-3-3-3-----| x3
E|-----------------|

"you're no fun anymore"
G|--------------|
D|--------------|
A|------6666----|
E|--444---------|

Verse 2
G|-------------------------------------------|
D|-------------------------------------------|
A|--1/3-3-3-3--333--6*--1/3-3-3-3-----666----| x2
E|--------------------------------444--------|

G|--------------|
D|--------------|
A|-----8(x32)---|
E|--------------|

G|----------------------------------|
D|----------------------------------|
A|---3-3-3-----6666--1/3-1/3-1/3----|
E|----------44----------------------|


Repeat everything again

Bridge
G|-----------------------------------|
D|-----------------------------------|
A|--33-6666----6666----6666----6666--| x3
E|----------33------44------66-------|

G|-----------------------------------------------|
D|-----------------------------------------------|
A|---6(x6)--8(x32)-8888-3333-6(x32)-8888-6666----|
E|-----------------------------------------------|

G|----------------------------------|
D|----------------------------------|
A|---3-3-3-----6666--1/3-1/3-1/3----|
E|----------44----------------------|



7. Ala Mode

Verse
G|-------------------------------|
D|-------------------------------|
A|--3-3-3--6-6-6-------3-3-3-----| x3
E|---------------4-4-4-----------|

Chorus
G|-------------------|
D|-------------------|
A|---33-66------3*---| x4
E|----------44-------|

G|----------------------------------------|
D|----------------------------------------|
A|--33333333-66666666----------33333333---| x2
E|--------------------44444444------------|


Play everything again


Bridge
G|------------------------|
D|------------------------|
A|--3-3-3-3---------------|
E|-------------4-4-4-4----|

G|-------------------------------|
D|-------------------------------|
A|--3-3-3--6-6-6-------3-3-3-----| x3
E|---------------4-4-4-----------|


Play chorus again!



8. Casio

Verse
G|----------------|
D|----------------|
A|---8--3--6--8---| x4
E|----------------|

with the verse, you can also play with the synth thing!!! 
like: A|----8888---33333--6666--888--|

Chorus
G|------------------|
D|------------------|
A|--3--3--3-33333---| x2
E|------------------|

Post-Chorus ("my sweet casiooooo")
G|---7-5-------------------|
D|-------8-5---------------|
A|-----------5-3-1---------| x4
E|-----------------3-------|

Play verse 4 times

Play chorus 2 times

Play post-chorus 8 times


----------------------------------------------------------


9. Anonymous

Verse
G|---------|
D|---------|
A|--4/6----| x12
E|---------|

Pre chorus
G|---------------------|
D|---------------------|
A|---------44444444----| x2
E|-66666666------------|

Chorus
G|-----------------------------------------|
D|-----------------------------------------|
A|---66666666-99999999-44444444-66666666---| x2
E|-----------------------------------------|

Play verse 8 times

G|-----|
D|-----|
A|--6--|
E|-----|

Play pre chorus

Play chorus 2 times

Play this during the "whooooooaaaaaaa..."
G|-----------------------------------------|
D|-----------------------------------------|
A|---66666666-99999999-4-------------------| 
E|-----------------------------------------|

G|-----------------------------------------|
D|-----------------------------------------|
A|---66666666-99999999/--------------------| 
E|-----------------------------------------|

Play verse 8 times

G|-----|
D|-----|
A|--6--|
E|-----|

Play pre chorus 2 times

Play the verse

----------------------------------------------------------


10. Kill You All in a Hip Hope Rage

Verse
G|---------------------------------------|
D|---------------------------------------|
A|--44444444-22222222-0000000000000000---| x2
E|---------------------------------------|

(don't play "back in the day!...")

Chorus "in a hip hop rage!"
G|---------------------------------|
D|---------------------------------|
A|--44-4--22-2-0000000000000000----| x2
E|---------------------------------|

Repeat everything above 

Bridge
G|-------------------------------------|
D|-------------------44444444----------|
A|--4444444444444444-------------------| x2
E|-------------------------------------|

G|-------------------------------------|
D|-------------------4444444444444444--|
A|-44444444-22222222-------------------|
E|-------------------------------------|

Play chorus 2 times

----------------------------------------------------------


11. Stalkers

Intro
G|------------------|
D|------------------|
A|-------4*---------| x4
E|--6*-------4*-----|

"with every single kiss..."
G|--------------|
D|--------------|
A|--------------|
E|---6---6-66---|

"goodbye..."
G|--------------------|
D|--------------------|
A|----------4444------| x2
E|--66666666----4444--|

G|---------------------------------|
D|---------------------------------|
A|------4----------4---------------|
E|--6------4---6------4---6---6----|

Chorus
G|--------------------|
D|--------------------|
A|----------4444------| x6
E|--66666666----4444--|





12. Jack You Up

Verse
G|-----------|
D|------41---|
A|--3-33-----| x8
E|---4-------|

Chourus
G|---------------|
D|---------------|
A|--33-33-33-11--| x4
E|---------------|

Repeat everything

Bridge
"psycho i'm fucking wasted..."
G|---------------------|
D|---------------------|
A|-1-3-11-3-1-3-11111--| x2
E|---------------------|

"do you want some of this..."
G|--------------------------------------------|
D|--------------------------------------------|
A|----------------------------------------3---|
E|---2-202-202-202-202-202-202-202-2-2-202----|

"wow! let's go!..."
G|-------------|
D|-------------|
A|--------3----| x7
E|--2-202------|

"ooooh..."
G|----------------------------------------|
D|----------------------------------------|
A|--33333333-11111111---------------------| x2
E|--------------------44444444-11111111---|

"come on baby let's go!" (play the 1-4-1-3 on the oh-oh-oh-oh)
G|-------------------------|
D|-------------------------|
A|---3-33-33-----1-3-------| x2
E|-----------1-4-----------|


And repeat verse and chorus

----------------------------------------------------------


13. Ass Backwards

Verse
G|----------|
D|------4---|
A|--5--5----| x8
E|----------|

End of verse/Chorus
G|----------|
D|----------|
A|-----55---| x8
E|--2-------|

Bridge
G|----------------------------------------|
D|----------------------------------------|
A|--22222222------------------------------| x5
E|-----------55555555-33333333-22222222---|

Play chorus 6 times


Добавлено: 25.10.2015
Другие материалы по этой песне:
  • Аккорды и текст

Страница создана 25.10.2015
http://primanota.ru/mindless-self-indulgence/how-i-learned-to-stop-giving-a-shit-and-love-mindless-self-indulgence-album-chords.htm
Привет, Гость.
Предлагаем пройти революционный курс по гитаре.
Подарок от PrimaNota.Ru, забирай!