PrimaNota.ru - самый крупный в мире бесплатный архив песенных текстов, аккордов, табулатур и нот


Mastodon - High Road - текст песни, таба, видео

Регистрация Запомнить меня
Войти через:  Facebook Google Twitter Vk Yandex Mail.ru

Mastodon - High Road - текст песни, таба, видео

Печатать
Просмотров: 192
Авторы музыки: Mastodon
Авторы текста: Mastodon
-------------------------------------------------------------------------------
                             High road - Mastodon
-------------------------------------------------------------------------------
Tabbed by: myskimasa

Song structure at the bottom. I had trouble with [gtr2] in chorus and [gtr3] in
so-called solo. Please send corrections if you've got any!

*I sincerely thank 'incubosity' for finetuning the main riff.

Tuning: D standard, drop A

INTRO/VERSE
[gtr1+2]
d|------|-------------------------------------------------|
A|--9---|--3-----------------------------------------7-\--|
F|--x-\-|--x-------5-4---------7-4-------------------x-\--|
C|-10-\-|--4-------5-4---------7-4-------------------8-\--|
G|--8-\-|--2-------3-2---------5-2-------------------6-\--|
A|------|------0-0-----0-0-0-0-----0-0-0-0-0-0-0-000------|

d|------------------------------------------------|
A|--3---------------------------------------------|
F|--x-------5-4-------------------------2---10-\--|
C|--4-------5-4-------------------------2---10-\--|
G|--2-------3-2-------------------------0----8-\--|
A|------0-0-----0-0-0-2p0-1p0-0-0-3p0-0-----------|

CHORUS
[gtr1]
d|---------------------------------------------------|
A|---------------------------------------------------|
F|---------------------------------------------------|
C|---------------------------------------------------|
G|--7-7-7-7-7-7-7-7-6-6-4-411111111111111111010-9-9--|
A|--5-5-5-5-5-5-5-5-4-4-2-2-9-9-9-9-9-9-9-9-8-8-7-7--|

d|---------------------------------------------------|
A|---------------------------------------------------|
F|---------------------------------------------------|
C|---------------------------------------------------|
G|--7-7-7-7-7-7-7-7-6-6-4-4111111131313141414181818--|
A|--5-5-5-5-5-5-5-5-4-4-2-2-9-9-9111111121212161616--|

[gtr2]
d|---------------------------------------------------|
A|--------------------------9-9-9-9-9-9-9-911111212--|
F|--9-9-9-9-9-9-9-9-8-8-6-6-x-x-x-x-x-x-x-x-x-x-x-x--|
C|--x-x-x-x-x-x-x-x-x-x-x-x-6-6-6-6-6-6-6-6-8-8-9-9--|
G|--7-7-7-7-7-7-7-7-6-6-4-4--------------------------|
A|---------------------------------------------------|

d|---------------------------------------------------|
A|--------------------------9-9-9-9-9-9--------------|
F|--9-9-9-9-9-911111111-911-x-x-x-x-x-x-8-8-8111111--|
C|--x-x-x-x-x-x-x-x-x-x-x-x-6-6-6-6-6-6-x-x-x-x-x-x--|
G|--7-7-7-7-7-7-9-9-9-9-7-9-------------6-6-6-9-9-9--|
A|---------------------------------------------------|

INTERLUDE
[gtr1]
d|---------------------------------------------------|
A|---------------------------------------------------|
F|---------------------------------------------------|
C|---------------------------------------------------|
G|--7-7-7-7-7-7-7-7-7-7-7-7101010101010101010101010--|
A|--5-5-5-5-5-5-5-5-5-5-5-5-8-8-8-8-8-8-8-8-8-8-8-8--|

[gtr2]
d|------------------------7--------------------------|
A|----0-----------7---910----------------10--131012--|
F|--------7---9---------------0--10--12--------------|
C|--9---9---9---9---9------12--12--12--12--12--------|
G|---------------------------------------------------|
A|---------------------------------------------------|

"PRE-SOLO"
[gtr1]
d|------------------------------------------|
A|------------------------------------------|
F|--9---9---7-9-7---7---5-7-4---4---2-4---5-|
C|--9---9---7-9-7---7---5-7-4---4---2-4---5-|
G|--7---7---5-7-5---5---3-5-2---2---0-2---3-|
A|------------------------------------------|

d|------------------------------------------|
A|------------------------------------------|
F|--9---9---7-911--11---9-7-4-------2-5---7-|
C|--9---9---7-911--11---9-7-4-------2-5---7-|
G|--7---7---5-7-9---9---7-5-2-------0-3---5-|
A|------------------------------------------|

[gtr2]
d|-----------------------------------------|
A|----------810/12-10---810-7---7h8p7------|
F|--9---9-----------------------------9----|
C|--------------------------------------9--|
G|-----------------------------------------|
A|-----------------------------------------|

d|----------------10--141514-14h15p14-b15-b17-|
A|----------810/12----------------------------|
F|--9---9-------------------------------------|
C|--------------------------------------------|
G|--------------------------------------------|
A|--------------------------------------------|

[gtr3]
d|-----------------------------------------|
A|-----------------------------------------|
F|-----------------------------------------|
C|----------5-7/9---7---5-7-4---4h5p4-2----|
G|--7---7-------------------------------2--|
A|-----------------------------------------|

d|-----------------------------------------|
A|------------------7-8-7---7h8p7-7b8-8b10-|
F|----------------7------------------------|
C|----------5-7/9--------------------------|
G|--7---7----------------------------------|
A|-----------------------------------------|

"SOLO"
[gtr1]
d|--------------------------------------------------------------------------|
A|--------------------------------------------------------------------------|
F|--------------------------------------------------------------------------| x 2
C|--------------------------------------------------------------------------|
G|--7--7--7--7--7--7--7--7--7--7--7--7-10-10-10-10-10-10-10-10-10-10-10-10--|
A|--5--5--5--5--5--5--5--5--5--5--5--5--8--8--8--8--8--8--8--8--8--8--8--8--|

[gtr2]
d|--------------------------------------------------------------------------|
A|-------12----------------12----------12-13-12-10-12-10--------------------|
F|-11h13----13p11----11h13----13p11----------------------12-14-12-11-12-11--|
C|----------------14----------------14--------------------------------------|
G|--------------------------------------------------------------------------|
A|--------------------------------------------------------------------------|

d|----------------------------------------------------------------15-17-15--|
A|-------12----------------12----------12-12-12-13-13-13-15-15-15-----------|
F|-11h13----13p11----11h13----13p11-----------------------------------------|
C|----------------14----------------14--------------------------------------|
G|--------------------------------------------------------------------------|
A|--------------------------------------------------------------------------|

[gtr3]
d|--------4-----------------4-----------------------------------------------|
A|--4h5------5p4------4p5------5p4-----7--9--7--5--7--5--3--5--3------------|
F|-----------------4-----------------4-----------------------------4--5--4--|
C|--------------------------------------------------------------------------|
G|--------------------------------------------------------------------------|
A|--------------------------------------------------------------------------|

d|--------4-----------------4-----------------------------------------------|
A|--4h5------5p4------4p5------5p4-----7--7--7--8--8--8-10-10-10------------|
F|-----------------4-----------------4-----------------------------8-10--8--|
C|--------------------------------------------------------------------------|
G|--------------------------------------------------------------------------|
A|--------------------------------------------------------------------------|


SONG STRUCTURE

INTRO x 4
VERSE x 4
CHORUS x 2
INTRO
VERSE x 2
CHORUS x 2
INTERLUDE x 4
PRE-SOLO x 2
"SOLO" x 2
CHORUS x 2
INTRO x 2


************************************

| /   slide up
| \   slide down
| h   hammer-on
| p   pull-off
| ~   vibrato
| +   harmonic
| x   Mute note
| b   Bend
| pb  Pre-bend
| br  Bend release
| pbr Pre-bend release
| brb Bend release bend

************************************
Добавлено: 31.05.2015
Другие материалы по этой песне:

Страница создана 18.05.2014
http://primanota.ru/mastodon/high-road-chords.htm
Привет, Гость.
Предлагаем пройти революционный курс по гитаре.
Подарок от PrimaNota.Ru, забирай!