PrimaNota.ru - самый крупный в мире бесплатный архив песенных текстов, аккордов, табулатур и нот


Mastodon - Diamond In The Witch House - текст песни, таба, видео

Регистрация Запомнить меня
Войти через:  Facebook Google Twitter Vk Yandex Mail.ru

Mastodon - Diamond In The Witch House - текст песни, таба, видео

Печатать
Просмотров: 165
Авторы музыки: Mastodon
Авторы текста: Mastodon, Scott Kelly
Mastodon - Diamond in the Witch House
tuning - AGCFAd

Intro                                              Intro Lead
d---1-----------1-----------1--------------0-----|-----19~-------------------19~-------22b~----|
A-3---0-------3---0-------3--0---------0-4---4---|---------20-19-----------------20-19---------|
F-------4---4-------4---4------4---4/5---------5-|-16~-----------19~-----16~-------------------|
C---------3-----------3----------3---------------|---------------------------------------------|
G------------------------------------------------|---------------------------------------------|
A------------------------------------------------|---------------------------------------------|

Main Riff                                        Main Riff Variant
d----------------------------------------------|-----------------------------------------------|
A----------------------------------------------|-3--3-3-----3--3-3-----3--3-3-----3/4-4-1-1----|
F--------------------------------------------0-|-x--x-x-----x--x-x-----x--x-x-----x/x-x-x-x-0--|
C-4--4-4-----4--4-4-----4--4-4-----4/5-5-2-2-0-|-4--4-4-----4--4-4-----4--4-4-----4/5-5-2-2-0--|
G-2--2-2-----2--2-2-----2--2-2-----2/3-3-0-0-0-|-2--2-2-----2--2-2-----2--2-2-----2/3-3-0-0-0--|
A--------0-0--------0-0--------0-0-------------|--------0-0--------0-0--------0-0--------------|

  Within the Sea riff
d---------------------------------------------------------------------------------------------------|
A---------------------------------------------------------------------------------------------------|
F---------------------------------------------------------------------------------------------------|
C---------------------------------------------------------------------------------------------------|
G-7-7-7-7-7-14-14-14-14-14-13-13-13-13-13-------------7-7-7-7-7-14-14-14-14-14-13-13-13-13-13-------|
A-5-5-5-5-5-12-12-12-12-12-11-11-11-11-11-8-7-5-4-5-4-5-5-5-5-5-12-12-12-12-12-11-11-11-11-11-5/12~-|

d-----0-----------0--------------0------------------------0-----------0--------------0--------------|
A-------0-----------0--------------0------------------------0-----------0--------------0------------|
F---------0-----------0--------------0------------------------0-----------0--------------0----------|
C---------------------------------------------------------------------------------------------------|
G-7-7-------14-14----------13-13----------------------7-7-------14-14----------13-13----------------|
A-5-5-------12-12----------11-11----------8-7-5-4-5-4-5-5-------12-12----------11-11----------5/12~-|

 Clarity Riff                           Clarity riff lead          Clarity 2 riff    (variation)
d-------------------------------------|-------------------------|------------------|----------------|
A-------------------------------------|-1p0---1p0---1p0---1p0---|------------------|----------------|
F-------------------------------------|-----4-----4-----4-----4-|------------------|----------------|
C-------------------------------------|-------------------------|------------------|----------------|
G-15\14-14-15\14-14-15\14-14-15\14-14-|-------------------------|-14-10-9/10\9-2/6-|----------------|
A-13\12-12-13\12-12-13\12-12-13\12-12-|-------------------------|------------------|-12-8-7/8\7-0p4-| 

Only Loss fills my Void riff
d-------------------------------------------------------------------------------------------------|
A-------------------------------------------------------------------------------------------------|
F-------------------------------------------------------------------------------------------------|
C-------------------------------------------------------------------------------------------------|
G-2-2-2-2-2-2-2-2-2-2-2-2-2-2-2-2-2-2-5-5-5-5-5-5-3-3-3-3-3-3-3-3-3-3-3-3-3-3-3-3-3-3-5-5-5-5-5-5-|
A-0-0-0-0-0-0-0-0-0-0-0-0-0-0-0-0-0-0-3-3-3-3-3-3-1-1-1-1-1-1-1-1-1-1-1-1-1-1-1-1-1-1-3-3-3-3-3-3-|

Bridge
d-------------------------------------------------------------------------------------------------|
A-------------------------------------------------------------------------------------------------|
F-9-9-9-9-9-9-11111111111112-12-12-12-12-12-17-17-17-17-17-17-16-16-16-16-16-16-------------------|
C-x-x-x-x-x-x-x-x-x-x-x-x-x--x--x--x--x--x--x--x--x--x--x--x--x--x--x--x--x--x--------------------|
G-7-7-7-7-7-7-9-9-9-9-9-9-10-10-10-10-10-10-15-15-15-15-15-15-14-14-14-14-14-14-14-14-14-14-14-14-|
A-------------------------------------------------------------------------------12-12-12-12-12-12-|
                                        Bridge 2 
d-------------------------------------|-------------------------------------------------------|
A-------------------------------------|-------------------------------------------------------|
F-------------------------------------|-12-12-12-12-12-12-14-14-14-14-14-14-16-16-16-16-16-16-|
C-------------------------------------|-x--x--x--x--x--x--x--x--x--x--x--x--x--x--x--x--x--x--|
G-18-18-18-18-18-18-15-15-15-17-17-17-|-10-10-10-10-10-10-12-12-12-12-12-12-14-14-14-14-14-14-|
A-16-16-16-16-16-16-13-13-13-15-15-15-|-------------------------------------------------------|

d--------------------------------------------------------------------------------------------|
A--------------------------------------------------------------------------------------------|
F-20-20-20-20-20-20-19-19-19-19-19-19--------------------------------------------------------|
C-x--x--x--x--x--x--x--x--x--x--x--x---------------------------------------------------------|
G-18-18-18-18-18-18-17-17-17-17-17-17-14-14-14-14-14-14-18-18-18-18-18-18-15-15-15-17-17-17--|
A-------------------------------------12-12-12-12-12-12-16-16-16-16-16-16-13-13-13-15-15-15--|

Song Structure (when I put "and" it means play the riffs at the same time)
Intro x2
Intro and Intro Lead x3
Main Riff x4
Intro lead x2
Main Riff x2 
Main Riff variation x2
Within the Sea x1
Clarity and Clarity lead x1
Clarity 2 riff x2
Clarity and Clarity lead x1
Clarity 2 x2
Clarity 2 and variation x2
Main riff x2
Main riff variation x2
Within the Sea x1
Clarity and Clarity lead x1
Clarity 2 x2
Clarity and Clarity lead x1
Clarity 2 x2
Clarity 2 and variation x2
Intro and Intro lead x2
ONly Loss Fills my Void x6
Bridge x2
Bridge 2 x2
Only loss filly my void x10 (and Intro lead) 
Ends on A 
Добавлено: 06.10.2014
Другие материалы по этой песне:

Страница создана 06.10.2014
http://primanota.ru/mastodon/diamond-in-witch-house-chords.htm
Привет, Гость.
Предлагаем пройти революционный курс по гитаре.
Подарок от PrimaNota.Ru, забирай!