PrimaNota.ru - самый крупный в мире бесплатный архив песенных текстов, аккордов, табулатур и нот


Mastodon - Divinations - текст песни, таба, бас-таба, видео

Регистрация Запомнить меня
Войти через:  Facebook Google Twitter Vk Yandex Mail.ru

Mastodon - Divinations - текст песни, таба, бас-таба, видео

Печатать
Просмотров: 172
As recorded by Mastodon
                      (From the 2009 Album CRACK THE SKYE)

Guitar I - Brent Hinds (DGCFAD)
Guitar II - Bill Kelliher (DGCFAD)
Guitar III - Cleanish Guitar (DGCFAD)

If you think something dosnt sound right and you know how to play it please
tell me!

Intro
This is all fingerpicked I think. Let ring where possible

Guitar III
|-------|-------------------------|-------------------------|
|-----0-|-------4-----5---------0-|-------4-----5---------0-|
|-3p0---|-1p0-0---0-0---0-0-3p0---|-1p0-0---0-0---0-0-3p0---|
|-------|-------------------------|-------------------------|
|-------|-------------------------|-------------------------|
|-------|-------------------------|-------------------------|

|-------------------------|-------------------------|
|-------4-----5---------0-|-------4-----5-----------|
|-1p0-0---0-0---0-0-3p0---|-1p0-0---0-0---0-0-0-7p4-|
|-------------------------|-------------------------|
|-------------------------|-------------------------|
|-------------------------|-------------------------|

Guitar III
|-----3-----0-----------|-----3-----0-----------|-----3-----0-----------|-----3-----0-----------|
|-----------------------|-----------------------|-----------------------|-----------------------|
|-5p4---4-4---4-4-7p4-4-|-5p4---4-4---4-4-7p4-4-|-5p4---4-4---4-4-7p4-4-|-5p4---4-4---4-4-7p4-4-|
|-----------------------|-----------------------|-----------------------|-----------------------|
|-----------------------|-----------------------|-----------------------|-----------------------|
|-----------------------|-----------------------|-----------------------|-----------------------|
|
|Guitar I & II
|-----------------------|-----------------------|-----------------------|-----------------------|
|-----------------------|-----------------------|-----------------------|-----------------------|
|-----------------------|-----------------------|-----------------------|-----------------------|
|-9--9------------------|-9--9------------------|-----------------------|-9--9------------------|
|-9--9------------------|-9--9-10-10-10-10-10-10|-9--9------------------|-9--9-10-10-10-10-10-10|
|-7--7------------------|-7--7-8--8--8--8--8--8-|-7--7------------------|-7--7-8--8--8--8--8--8-|

Main Riff
Clean guitar plays the intro behind it

Guitar I
|-----------------------|------------------------|
|-----------------------|------------------------|
|-----------------------|------------------------|
|-----------1-----------|-----------1------------|
|-5-5-2-3-5---5-3-2-0---|-5-5-2-3-5---5-3-2-0----|
|-3-3-----------------4-|-3-3-----------------4--|
|
|Guitar II
|-----------------------|-------------------------|
|-----------------------|-------------------------|
|-----------------------|-------------------------|
|-----------------------|-------------------------|
|-5-5-------------------|-5-5---6--6--6--6--6--6--|
|-3-3-------------------|-3-3---4--4--4--4--4--4--|

|-----------------------|------------------------|
|-----------------------|------------------------|
|-----------------------|-----------------0-1-4--|
|-----------1-----------|-----------1-3-4--------|
|-5-5-2-3-5---5-3-2-0---|-5-5-2-3-5--------------|
|-3-3-----------------4-|-3-3--------------------|
|                                  ^Not sure about this bit
|-----------------------|-------------------------|
|-----------------------|-------------------------|
|-----------------------|-------------------------|
|-----------------------|-------------------------|
|-5-5-------------------|-5-5---6--6--6--6--6--6--|
|-3-3-------------------|-3-3---4--4--4--4--4--4--|

|-----------------------|-----------------------|
|-----------------------|-----------------------|
|-----------1-----------|-----------1-----------|
|-4-4-2-3-5---5-3-2-0---|-4-4-2-3-5---5-3-2-0---|
|-2-2-----------------3-|-2-2-----------------3-|
|-----------------------|-----------------------|
|
|
|-----------------------|-----------------------|
|-----------------------|-----------------------|
|-----------------------|-----------------------|
|-4-4-------------------|-4-4-------5-5-5-5-5-5-|
|-2-2-------------------|-2-2-------3-3-3-3-3-3-|
|-----------------------|-----------------------|

|-----------------------|-----------------------|
|-----------------------|-----------------1-4-5-|
|-----------1-----------|-----------1-3-4-------|
|-4-4-2-3-5---5-3-2-0---|-4-4-2-3-5-------------|
|-2-2-----------------3-|-2-2-------------------|
|-----------------------|-----------------------|
|
|
|-----------------------|-----------------------|
|-----------------------|-----------------------|
|-----------------------|-----------------------|
|-4-4-------------------|-4-4-------5-5-5-5-5-5-|
|-2-2-------------------|-2-2-------3-3-3-3-3-3-|
|-----------------------|-----------------------|

Verse
Guitar I & II
|-------------------------|-------------------------|
|-------------------------|-------------------------|
|-------------------------|-------------------------|
|-------5-----6-----------|-------5-----6-----------|
|-------------------------|-------------------------|
|-4p3-3---3-3---3-3-3h4-4-|-4p3-3---3-3---3-3-3h4-4-| x2
      PM PM--| PM--|            PM PM--| PM--|

|--------------------------|--------------------------|
|--------------------------|--------------------------|
|-------9-----10-----------|-------9-----10-----------|
|--------------------------|--------------------------|
|-8p7-7---7-7----7-7-7h8-8-|-8p7-7---7-7----7-7-7h8-8-|
|--------------------------|--------------------------| x2
     PM  PM--|  PM--|           PM  PM--|  PM--|

Chorus
I'm not sure if this is right

Guitar I & II
|---7-7-7-7--------|--------------------------|
|---0-0-0-0--------|-5h6p5/8h10p8-5h6p5-------|
|-5-5-5-5-5--5h7p5-|--------------------5h7p5-|
|-7-7-7-7-7--------|--------------------------|
|-0-0-0-0-0--------|--------------------------|
|------------------|--------------------------|

|---7-7-7-7--------|-------------------------|
|---0-0-0-0--------|-------------------------|
|-5-5-5-5-5--------|-4h5p4-------------------|
|-7-7-7-7-7--5h7p5-|-------4h5p4-------------|
|-0-0-0-0-0--------|-------------4h5p4-0h2p0-|
|------------------|-------------------------|

|---7-7-7-7-7-7-|----8--8----8--8-|
|---0-0-0-0-0-0-|----0--0----0--0-|
|-5-5-5-5-5-5-5-|-----------------|
|-7-7-7-7-7-7-7-|-7-------7-------|
|-0-0-0-0-0-0-0-|-0-------0-------|
|---------------|-----------------|

|---7-7-7-7-7-7-|-------0-------14----14----14-|
|---0-0-0-0-0-0-|-12-12---15/16----16----16----|
|-5-5-5-5-5-5-5-|-13-13------------------------|
|-7-7-7-7-7-7-7-|-15-15------------------------|
|-0-0-0-0-0-0-0-|------------------------------|
|---------------|------------------------------|

Verse
Chorus

Bridge
Guitar I & II
|--------------------|-------------------|--------------------|-------------------|
|--------------------|-------------------|--------------------|-------------------|
|--------------------|-------------------|--------------------|-------------------|
|--------------------|-------------------|--------------------|-------------------|
|-7----7-7h8p5-5h7-7-|-7----7-7h8p5-7--7-|-7----7-7h8p5-5h7-7-|-9--7--5--4--5--4--|
|---0----------------|---0---------------|---0----------------|-7--5--3--2--3--2--|

|--------------------|-------------------|--------------------|-------------------|
|--------------------|-------------------|--------------------|-------------------|
|--------------------|-------------------|--------------------|-------------------|
|--------------------|-------------------|--------------------|-------------------|
|-2----2-2h3p0-0h2-2-|-2----2-2h3p0-2--2-|-2----2-2h3p0-0h2-2-|-5--4--5--7--5--7--|
|---0----------------|---0---------------|---0----------------|-3--2--3--5--3--5--|

Pre-Solo & Rythm Behind Solo
|-----------------------------|--------------------------|
|-----------------------------|--------------------------|
|-----------------------------|--------------------------|
|-----------------------------|--------------------------|
|-----------------------------|--------------------------|
|-12-0-0-0-0-0-13-0-12-0-10-0-|-9-0-0-0-0-0-10-0-9-0-7-0-|

|-------------------------|-------------------------|
|-------------------------|-------------------------|
|-------------------------|-------------------------|
|-------------------------|-------------------------|
|-------------------------|-------------------------|
|-6-0-0-0-0-0-7-0-6-0-4-0-|-3-3-3-3-3-3-1-1-1-1-1-1-|

|-------------------------|-------------------------|
|-------------------------|-------------------------|
|-------------------------|-------------------------|
|-------------------------|-------------------------|
|-------------------------|-------------------------|
|-0-0-0-0-0-0-0-0-1-1-3-3-|-4-4-4-4-4-4-6-6-4-4-3-3-|

|-------------------------|-------------------------------|
|-------------------------|-------------------------------|
|-------------------------|-------------------------------|
|-------------------------|-------------------------------|
|-------------------------|-------------------------------|
|-7-7-7-7-7-7-6-6-7-7-9-9-|-10-10-10-10-10-10-1-1-1-1-1-1-|

Solo Pt.1 (Thanks Absentmental for the solo)
|-/12-12-12-12-12-12-12-13p12-10-10-12p10-8-|----------------------------------------------|
|-------------------------------------------|-12-12-12-12-12-12-12-13p12----12-------------|
|-------------------------------------------|----------------------------14----14p12----12-|
|-------------------------------------------|----------------------------------------14----|
|-------------------------------------------|----------------------------------------------|
|-------------------------------------------|----------------------------------------------|

|--------------------17------|---------15--------------15------|
|---------------0h15----15p0-|-15h17p0----17p0-15h17p0----17p0-|
|-/15---0h15h16--------------|---------------------------------|
|----------------------------|---------------------------------|
|----------------------------|---------------------------------|
|----------------------------|---------------------------------|

|--------------------------------|--------------------------------|
|-17p0-15p0-12p0-12p0----12----0-|-12p0---------------------------|
|---------------------14----14---|------14p0-12p0-12p0----12----0-|
|--------------------------------|---------------------14----14---|
|--------------------------------|--------------------------------|
|--------------------------------|--------------------------------|

|--------------------------|
|--------------------------|
|---------------------12---|
|--------------------------|
|-14p12p10---10-12/14------|
|--------------------------|

Solo Pt.2
|-------------------------------------------|-------------------------------|
|-------------------------------------------|-------------------------------|
|-------------------------------------------|-------------------------------|
|-------------------------------------------|-------------------------------|
|-------------------------------------------|-------------------------------|
|-/12-12-12-12-12-12-12-13p12p10-10-12p10p9-|-7-7-7-7-7-7-7-9p7p6-7-6p5p3p0-|

|----------------------|-------------------------|
|----------------------|-------------------------|
|----------------7-----|-------7-----------7-----|
|------------0h5---5p0-|-7h9p0---9p0-7h9p0---9p0-|
|------0h5h7-----------|-------------------------|
|-6--------------------|-------------------------|

|-12-------12-------12----------|-------------------------------|
|-15b(17)--15b(17)--15b(17)~~---|-12tr15------------------------|
|-------------------------------|-------------------------------|
|-------------------------------|-------------------------------|
|-------------------------------|-------------------------------|
|-------------------------------|-------------------------------|

|-------------------------------------|--------------------------|
|-11-12-11----11----------------------|--------------------------|
|----------14----14-12----12----14----|---------------------12---|
|----------------------14----14----14-|--------------------------|
|-------------------------------------|-14p12p10---10-12/14------|
|-------------------------------------|--------------------------|

Chorus

Outro
|--------------------|-------------------|--------------------|-------------------|
|--------------------|-------------------|--------------------|-------------------|
|--------------------|-------------------|--------------------|-------------------|
|--------------------|-------------------|--------------------|-------------------|
|-7----7-7h8p5-5h7-7-|-7----7-7h8p5-7--7-|-7----7-7h8p5-5h7-7-|-9--7--5--4--5--4--|
|---0----------------|---0---------------|---0----------------|-7--5--3--2--3--2--|

|--------------------|-------------------|--------------------|-------------------|
|--------------------|-------------------|--------------------|-------------------|
|--------------------|-------------------|--------------------|-------------------|
|--------------------|-------------------|--------------------|-------------------|
|-2----2-2h3p0-0h2-2-|-2----2-2h3p0-2--2-|-2----2-2h3p0-0h2-2-|-5--4--5--7--5--7--|
|---0----------------|---0---------------|---0----------------|-3--2--3--5--3--5--|

|---------------|----------|----------|
|---------------|----------|----------|
|---------------|----------|----------|
|---------------|----------|-2--------|
|-9-7-9-12-9-12-|-14\------|-2--------|
|-7-5-7-10-7-10-|-12\------|-0--------|

Well thats it. If you have any corrections as I said, tell me! Enjoy!
Добавлено: 30.05.2012
Другие материалы по этой песне:

Страница создана 21.02.2012
http://primanota.ru/mastodon/divinations-chords.htm
Привет, Гость.
Предлагаем пройти революционный курс по гитаре.
Подарок от PrimaNota.Ru, забирай!