PrimaNota.ru - самый крупный в мире бесплатный архив песенных текстов, аккордов, табулатур и нот


Mastodon - Tread Lightly - текст песни, таба, видео

Регистрация Запомнить меня
Войти через:  Facebook Google Twitter Vk Yandex Mail.ru

Mastodon - Tread Lightly - текст песни, таба, видео

Печатать
Просмотров: 255
Уроки эстрадного вокала в Санкт-Петербурге
Авторы музыки: Mastodon
Авторы текста: Mastodon
Mastodon - Tread Lightly
drop C - CGCFAd

d---------------------------------------------------\-|
A-----------------------------------------------------|
F-7--7-----7-7---7-10------10-10-10-------------------|
C-0--0-----0-0---0-0-------0--0--0----3-3-0-7-7-7-----|
G-0--0-----0-0---0-0-------0--0--0----3-3-0-7-7-7-----|
C-0---0000-----0------0000----------0-3-3-0-7-7-7-----|

d----------------------------------------------------------------------------------------------|
A----------------------------------------------------------------------------------------------|
F-7-----7-7---7---7-----7-7---7---10----1010---10---3-----3/6---6---7----7-7---7-----7-7---7---|
C-0-----0-0---0---0-----0-0---0---0-----0-0----0----0-----0-0---0---0----0-0---0-----0-0---0---|
G-0-----0-0---0---0-----0-0---0---0-----0-0----0----0-----0-0---0---0----0-0---0-----0-0---0---|
C--0000-----0---0--0000-----0---0--0000------0----0--0000-----0---0--0000----0--0000-----0---0-|

d-------------------------------------------------------------------\-|
A---------------------------------------------------------------------|
F-14----1414---14---10----1010---10---9-----9-9---9-------------------|
C-0-----0-0----0----0-----0-0----0----0-----0-0---0----3-3-0-7-7-7----| x2
G-0-----0-0----0----0-----0-0----0----0-----0-0---0----3-3-0-7-7-7----|
C--0000------0----0--0000------0----0--0000-----0---0--3-3-0-7-7-7----|

d------------------------------0-----0----|  |---------0-------0-----0----\-|
A-----------------------------------------|  |------------------------------|
F-----15"-----14"-----12"-----------------|  |------------------------------|
C-----x-"-----x-"-----x-"-----------------|x4|-0-6-6-5---3------------------| x4
G-----13"-----12"-----10"-----------------|  |-0-6-6-5---3-0h2---2h3----3---|
C-0-0-----0-0-----0-0------0h2---2h3---3--|  |-0-6-6-5---3-0h2---2h3----3---|

d----------------------------------------------------------------------------------------------|
A----------------------------------------------------------------------------------------------|
F-7-----7-7---7---7-----7-7---7---10----1010---10---3-----3/6---6---7----7-7---7-----7-7---7---|
C-0-----0-0---0---0-----0-0---0---0-----0-0----0----0-----0-0---0---0----0-0---0-----0-0---0---|
G-0-----0-0---0---0-----0-0---0---0-----0-0----0----0-----0-0---0---0----0-0---0-----0-0---0---|
C--0000-----0---0--0000-----0---0--0000------0----0--0000-----0---0--0000----0--0000-----0---0-|

d-------------------------------------------------------------------\-|
A---------------------------------------------------------------------|
F-14----1414---14---10----1010---10---9-----9-9---9-------------------|
C-0-----0-0----0----0-----0-0----0----0-----0-0---0----3-3-0-7-7-7----| x2
G-0-----0-0----0----0-----0-0----0----0-----0-0---0----3-3-0-7-7-7----|
C--0000------0----0--0000------0----0--0000-----0---0--3-3-0-7-7-7----|

d------------------------------0-----0----|    |---------0-------0-----0----\-|
A-----------------------------------------|    |------------------------------|
F-----15"-----14"-----12"-----------------|    |------------------------------|
C-----x-"-----x-"-----x-"-----------------| x4 |-0-6-6-5---3------------------| x4
G-----13"-----12"-----10"-----------------|    |-0-6-6-5---3-0h2---2h3----3---|
C-0-0-----0-0-----0-0------0h2---2h3---3--|    |-0-6-6-5---3-0h2---2h3----3---|


d-----------------------------------------------------------\-|
A--------6--6-6---------6--6-6--------------------------------|
F--------7--7-7---------7--7-7---------10-10-10-9-9-9-7\5/7---|
C--------7--7-7---------7--7-7--8--8-8------------------------|x4
G--------0--0-0---------0--0-0--8--8-8------------------------|
C-12p0-0-0--0-0--15p0-0-0--0-0--8--8-8------------------------|

d-------------------------------|  |-----------------------\---|
A-------------------------------|  |---------------------------|
F-------------------------------|  |---------------101099------|
C-------------------------------|x3|-------10101212------------| x6
G-------------------1515--------|  |---------------------------|
C-000h12p000012121313---10p0000-|  |00h10p0--------------------|

d-----------------------------------------------------------\-|
A--------6--6-6---------6--6-6--------------------------------|
F--------7--7-7---------7--7-7---------10-10-10-9-9-9-7\5/7---|
C--------7--7-7---------7--7-7--8--8-8------------------------| x8
G--------0--0-0---------0--0-0--8--8-8------------------------|
C-12p0-0-0--0-0--15p0-0-0--0-0--8--8-8------------------------|
Добавлено: 04.09.2014
Другие материалы по этой песне:

Страница создана 04.09.2014
http://primanota.ru/mastodon/tread-lightly-chords.htm
Привет, Гость.
Предлагаем пройти революционный курс по гитаре.
Подарок от PrimaNota.Ru, забирай!