PrimaNota.ru - самый крупный в мире бесплатный архив песенных текстов, аккордов, табулатур и нот


Marduk - Through The Belly Of Damnation - текст песни, таба, видео

Регистрация Запомнить меня
Войти через:  Facebook Google Twitter Vk Yandex Mail.ru

Marduk - Through The Belly Of Damnation - текст песни, таба, видео

Печатать
Просмотров: 78
Band:  Marduk
Album: Rom 5.12
Song:  Through the Belly of Damnation

Copyright (c)  Blooddawn 2007
Version 1.0 - April/June 2007

Transcribed By: RedScorpion
Email:          beardedwanker@hotmail.com


.  - palm mute           /  - slide up to
\  - slide down to       ~  - vibrato
h  - hammer on           b  - Bend
p  - pull off            Suffixes for bend
t  - tap                 f  - full bend    h - half bend
ph - pinched harmonic    q  - quarter bend t - tap bend
*  - see comment         ^  - Hold bend    r release bend
x  - Stuccatto           ~  - vibrato bend
,  - slight palm mute    () - ghost note, sustained note
"  - tremolo note        <> - Trill

Tuning E A D G B E


This tab is done for 1 guitar only, however on the cd there
is a second guitar fooling around in the background over some
of these riffs, its mostly octaves and some harmonies so no
need to tab it.


Riff A

|---------------------------------------------------|
|---------------------------------------------------|
|o--------------------------------------------------|
|o------4-4-----5-5-5-5-5-5-------------------------|
|---------------------------------------------------|
|---2-2-----2-2-------------6-6-5-5-3-3-6-6-5-5-3-3-|

|--------------------------------------------|
|--------------------------------------------|
|-------------------------------------------o|
|-----4-4-----5-5-5-5-5-5-------------------o|
|--------------------------------------------|
|-2-2-----2-2-------------5--6--5--3--5--3---|


Riff B

|---------------------------------------------------------|
|---------------------------------------------------------|
|o-------------------------------------------------------o|
|o--9---------9-\7/10\7/9--------------------------------o|
|---7---------7-\5/8-\5/7---------8-8-7-7-8-8-10-10-8-8---|
|---0-0-0-0-0-----------0-0-0-0-0-------------------------|


Riff A repeat

Bass break

Riff C (2nd guitar plays same riff, one octave lower)

|----------------------------------------------------|
|----------------------------------------------------|
|o--------------------------------------------------o|
|o--9--9/10\9---------------------------------------o|
|---7--7/8-\7---8-8-11-11-8-8-11-11-12-12-11-11-8----|
|---0---------0--------------------------------------|


Riff D

|--------------------------------------------------------------|
|--------------------------------------------------------------|
|o--9-----5------9-9/10-10\9-9----------13-13/14-14\13-13\10--o|
|o------------------------------------------------------------o|
|---7-----3------7-7/8--8-\7-7----------11-11/12-12\11-11\8----|
|-----0-0---0-0----------------0-0-0-0-------------------------|


Riff A repeat


Riff E

|--------------------------------------------------|
|--------------------------------------------------|
|o------------------------------------------------o|
|o--4-4-4-5--8-7-5-8-7-5---4-4-4-5--7-8-7-5-7-5---o|
|---2-2-2-3--6-5-3-6-5-3---2-2-2-3--5-6-5-3-5-3----|
|---2---2-3--6-5-3-6-5-3---2---2-3--5-6-5-3-5-3----|

Riff B repeat


Riff F

|--------------------------------|
|--------------------------------|
|o----------10-10-10-10-10-10---o|
|o--9----9----------------------o|
|---7----7---8--8--8--8--8--8----|
|---0----0-----------------------|


Riff G


|--------------------------------------|
|--------------------------------------|
|o------------------------------------o|
|o----------9-9-----10-10-------------o|
|-------7-7-----7-7-------8-8-5-7-8----|
|---0-0--------------------------------|

Riff D repeat

Riff A repeat

Riff E repeat

Riff B repeat
Добавлено: 24.05.2012
Другие материалы по этой песне:
  • Аккорды и текст

Страница создана 24.05.2012
http://primanota.ru/marduk/through-the-belly-of-damnation-chords.htm
Привет, Гость.
Предлагаем пройти революционный курс по гитаре.
Подарок от PrimaNota.Ru, забирай!