PrimaNota.ru - самый крупный в мире бесплатный архив песенных текстов, аккордов, табулатур и нот


Marduk - Christraping Black Metal - текст песни, таба, видео

Регистрация Запомнить меня
Войти через:  Facebook Google Twitter Vk Yandex Mail.ru

Marduk - Christraping Black Metal - текст песни, таба, видео

Печатать
Просмотров: 146
Band: Marduk

Album: Panzer Division Marduk

Song: Christraping Black Metal

Copyright (c) Osmose – 1999

Version 1.0 - 08/10/2007

Transcribed By: inrwtl, FRMC, Fredduk

Email: inrwtl@alice.it


.  - palm mute           /  - slide up to
\  - slide down to       ~  - vibrato
h  - hammer on           b  - Bend
p  - pull off            Suffixes for bend
t  - tap                 f  - full bend    h - half bend
ph - pinched harmonic    q  - quarter bend t - tap bend
*  - see comment         ^  - Hold bend    r release bend
x  - Stuccatto           ~  - vibrato bend
,  - slight palm mute    () - ghost note, sustained note
"  - tremolo note        <> - Trill

Tuning: D# G# C# F# A# D# (semitone flat)


Riff 1

|-------------------------------------------------------------------|
|-------------------------------------------------------------------|
|-------------------------------------------------------------------|
|-------------------------------------------------------------------|
|---5-7-7---7-8-8---8-10-10-8-8-7-7-5-5-7-7-8-8---------------------|
|-0-------0-------0-------------------------------------------------|

|-------------------------------------------------------------------|
|-------------------------------------------------------------------|
|-------------------------------------------------------------------|
|-------------------------------------------------------------------|
|---5-7-7---7-8-8---8-10-10-8-8-7-7-5-5-4-4-1-1---------------------|
|-0-------0-------0-------------------------------------------------|


Riff 2

|-------------------------------------------------------------------|
|-------------------------------------------------------------------|
|-------------------------------------------------------------------|
|-------7-9-9--------9-10-10-------10-12-12-10-10-9-9-7-7-9-9-10-10-|
|-------5-7-7--------7-8--8--------8--10-10-8--8--7-7-5-5-7-7-8--8--|
|-0-0-0-------0-0-0----------0-0-0----------------------------------|

|-------------------------------------------------------------------|
|-------------------------------------------------------------------|
|-------------------------------------------------------------------|
|-------7-9-9--------9-10-10-------10-12-12-10-10-9-9-7-7-6-6-3-3---|
|-------5-7-7--------7-8--8--------8--10-10-8--8--7-7-5-5-4-4-1-1---|
|-0-0-0-------0-0-0----------0-0-0----------------------------------|


Riff 3

|-------------------------------------------------------------------|
|-------------------------------------------------------------------|
|-------------------------------------------------------------------|
|-------5-5-5-4-4-4-------------------------------------------------|
|-------------------5-5-5-6-6-6-5-5-5-3-3-3-5-5-5-------------------|
|-2-2-2-------------------------------------------------------------|

|-------------------------------------------------------------------|
|-------------------------------------------------------------------|
|-------------------------------------------------------------------|
|-------5-5-5-4-4-4-------------------------------------------------|
|-------------------5-5-5-6-6-6-5-5-5-3-3-5-5-6-6-------------------|
|-2-2-2-------------------------------------------------------------|


Riff 4

|-------------------------------------------------------------------|
|-------------------------------------------------------------------|
|-------------9-9-9-10-10-10-9-9-9----------------------------------|
|-------9-9-9----------------------10-10-10-------10-10-10----------|
|-7-7-7-------------------------------------8-8-8-------------------|
|-------------------------------------------------------------------|

|-------------------------------------------------------------------|
|-------------------------------------------------------------------|
|-------------9-9-9-10-10-10-9-9-9------------------10-10-----------|
|-------9-9-9----------------------10-10-10-----9-9-----------------|
|-7-7-7-------------------------------------7-7---------------------|
|-------------------------------------------------------------------|


Riff 5

|-------------------------------------------------------------------|
|-------------------------------------------------------------------|
|-------/9-9-9-------/10-10-10-------/9-9-9-10-10-10-7-7-7-10-10-10-|
|-------/9-9-9-------/10-10-10-------/9-9-9-10-10-10-7-7-7-10-10-10-|
|-2-2-2-/7-7-7-2-2-2-/8--8--8--2-2-2-/7-7-7-8--8--8--5-5-5-8--8--8--|
|-0-0-0--------0-0-0-----------0-0-0--------------------------------|


Riff 6

|-------------------------------------------------------------------|
|-------------------------------------------------------------------|
|-------------------------------------------------------------------|
|-------/5-5-5---------/6-6-6---------/5-5-5-6-6-6-3-3-3-6-6-6------|
|-2-2-2-/7-7-7---2-2-2-/8-8-8---2-2-2-/7-7-7-8-8-8-5-5-5-8-8-8------|
|-0-0-0----------0-0-0----------0-0-0-------------------------------|


Riff 7

|-------------------------------------------------------------------|
|-------------------------------------------------------------------|
|-------------------------------------------------------------------|
|-------7-7-7-10-10-10-7-7-7----------------------------------------|
|-0-0-0----------------------7-7-7-8-8-8-10-10-10-11-11-11----------|
|-------------------------------------------------------------------|

|-------------------------------------------------------------------|
|-------------------------------------------------------------------|
|-------------------------------------------------------------------|
|-------7-7-7-10-10-10-7-7-7-11-11-11-10-10-10-8-8-8-7-7-7----------|
|-0-0-0-------------------------------------------------------------|
|-------------------------------------------------------------------|


Riff 8

|-------------------------------------------------------------------|
|-------------------------------------------------------------------|
|-------------------------------------------------------------------|
|--------9-9-9-12-12-12-9-9-9---------------------------------------|
|-----------------------------9-9-9-10-10-10-12-12-12-13-13-13------|
|-7-7-7-------------------------------------------------------------|

|-------------------------------------------------------------------|
|-------------------------------------------------------------------|
|-------------------------------------------------------------------|
|--------9-9-9-12-12-12-9-9-9-13-13-13-12-12-12-10-10-10-9-9-9------|
|-------------------------------------------------------------------|
|-7-7-7-------------------------------------------------------------|


END
Добавлено: 28.04.2012
Другие материалы по этой песне:

Страница создана 28.02.2012
http://primanota.ru/marduk/christraping-black-metal-chords.htm
Привет, Гость.
Предлагаем пройти революционный курс по гитаре.
Подарок от PrimaNota.Ru, забирай!