PrimaNota.ru - самый крупный в мире бесплатный архив песенных текстов, аккордов, табулатур и нот


Marduk - Voices From Avignon - таба, видео

Регистрация Запомнить меня
Войти через:  Facebook Google Twitter Vk Yandex Mail.ru

Marduk - Voices From Avignon - таба, видео

Печатать
Просмотров: 103
Band:  Marduk
Album: Rom 5.12
Song:  Voices from Avignon

Copyright (c)  Regain Records/Blooddawn 2007
Version 1.0 - April 2007

Transcribed By: RedS
Email:          beardedwanker@hotmail.com


.  - palm mute           /  - slide up to
\  - slide down to       ~  - vibrato
h  - hammer on           b  - Bend
p  - pull off            Suffixes for bend
t  - tap                 f  - full bend    h - half bend
ph - pinched harmonic    q  - quarter bend t - tap bend
*  - see comment         ^  - Hold bend    r release bend
x  - Stuccatto           ~  - vibrato bend
,  - slight palm mute    () - ghost note, sustained note
"  - tremolo note        <> - Trill

Tuning E A D G B E


Riff A

|------------------------------------------------------------------|
|------------------------------------------------------------------|
|o----------------------------------------------------------------o|
|o--10-10-10-10-10-10-10-10-10-10-10-10-10-10-10-10-10-10--6--9---o|
|---8--8--8--8--8--8--8--8--8--8--8--8--8--8--8--8--8--8---4--7----|
|------------------------------------------------------------------|


Riff B

|-------------------------------------------------------------|
|-------------------------------------------------------------|
|o-----------------------------------------------------------o|
|o--6-6-6-6-6-6--7-7-7/10-10-10\6-6-6-6-6-6--7-7-7/10-10-10--o|
|---4-4-4-4-4-4--5-5-5/8--8--8-\4-4-4-4-4-4--5-5-5/8--8--8----|
|-------------------------------------------------------------|


Riff C

|------------------------------------------------------------|
|------------------------------------------------------------|
|o----------------------------------------------------------o|
|o----------------------------------------------------6--9--o|
|---8-8-11-10-10-7--8-8-11-10-10-10--8-8-11-10-10-10--4--7---|
|------------------------------------------------------------|


Riff A repeat

Riff D

|----------------------------------------------|
|----------------------------------------------|
|o--------------------------------------------o|
|o-------------------------------3-3-3-3-3-3--o|
|---------7-----8-7----------7---5-5-5-5-5-5---|
|---0-0-0---0-0-----8--0-0-0---0---------------|


Riff E I

|-------------------------------------------------------------|
|-------------------------------------------------------------|
|o-----------------------------------------------------------o|
|o-----------------------------------------------------------o|
|-------------------------------------------------------------|
|---0-5-2-2-2-2-2-0-5-2-2-2-2-2-0-5-2-2-2-2-2-0-1-1-1-4-4-4---|


Riff E II

|-------------------------------------------------------------|
|-------------------------------------------------------------|
|o-----------------------------------------------------------o|
|o-----------------------------------------------------------o|
|-------------------------------------------------------------|
|---0-5-2-2-2-2-2-0-5-2-2-2-2-2-0-5-2-2-2-2-2-0-5-2-2-2-2-2---|


Riff E I repeat


Riff A repeat

Riff C repeat

Riff B repeat

Riff D repeat

Riff A repeat


Riff F I (one timer)

|-------------------------------------|
|-------------------------------------|
|-------------------------------------|
|---6--(6)---5--(5)---6--(6)---5--7---|
|---4--(4)---3--(3)---4--(4)---3--5---|
|-------------------------------------|


Riff F II (one timer)

|-------------------------------------------------|
|---------------------(4)---------(3)-------------|
|-------------------------------------------------|
|---4-----3---------------------------------------|
|---6-----6--------5--5-5-5-5--5-5-5-5--5-5-5-5---|
|-------------0-2--3--3-3-3-3--3-3-3-3--3-3-3-3---|

|-------------------------------------------------|
|--------------------(1)----------(2)-------------|
|o------------------------------------------------|
|o--3-----2---------------------------------------|
|---5-----5--------3--3-3-3-3--3-3-3-3--3-3-3-3---|
|---------------0--1--1-1-1-1--1-1-1-1--1-1-1-1---|


Riff F III (repeat)

|---------------------------------------------------------------|
|-----------------------------------(4)---------(3)-------------|
|o--------------------------------------------------------------|
|o--4-4-4-4-4-4-4-3-3-3-3-3-------------------------------------|
|---6-6-6-6-6-6-6-6-6-6-6-6------5--5-5-5-5--5-5-5-5--5-5-5-5---|
|---------------------------0-2--3--3-3-3-3--3-3-3-3--3-3-3-3---|

|---------------------------------------------------------------|
|-----------------------------------(1)---------(2)-------------|
|--------------------------------------------------------------o|
|---3-3-3-3-3-3-2-2-2-2-2-2------------------------------------o|
|---5-5-5-5-5-5-5-5-5-5-5-5------3--3-3-3-3--3-3-3-3--3-3-3-3---|
|-----------------------------0--1--1-1-1-1--1-1-1-1--1-1-1-1---|


Riff B repeat

Riff C + Riff A repeat (2 guitar: Riff C in right speaker, Riff A in left)

Riff D repeat, end on E5

THE END
Добавлено: 12.04.2012
Другие материалы по этой песне:
  • Аккорды и текст

Страница создана 12.04.2012
http://primanota.ru/marduk/voices-from-avignon-chords.htm
Привет, Гость.
Предлагаем пройти революционный курс по гитаре.
Подарок от PrimaNota.Ru, забирай!