PrimaNota.ru - самый крупный в мире бесплатный архив песенных текстов, аккордов, табулатур и нот


Marduk - With Satan And Victorious Weapons - текст песни, таба, видео

Регистрация Запомнить меня
Войти через:  Facebook Google Twitter Vk Yandex Mail.ru

Marduk - With Satan And Victorious Weapons - текст песни, таба, видео

Печатать
Просмотров: 141
.  - palm mute           /  - slide up to
\  - slide down to       ~  - vibrato
h  - hammer on           b  - Bend
p  - pull off            Suffixes for bend
t  - tap                 f  - full bend    h - half bend
ph - pinched harmonic    q  - quarter bend t - tap bend
*  - see comment         ^  - Hold bend    r release bend
x  - Stuccatto           ~  - vibrato bend
,  - slight palm mute    () - ghost note, sustained note
"  - tremolo note        <> - Trill

Tuning E A D G B E


Riff 1

|-------------------------------------------------------------------|
|-------------------------------------------------------------------|
|-------------0-0---------------------0-0----------------------0-0--|
|---------9-9-----9-9-------------9-9-----9-9-10-9---------9-9------|
|-----7-7-------------8-8-----7-7-------------8--7-----7-7----------|
|-0-0---------------------0-0-----------------8--7-0-0--------------|

|-------------------------------------------------------------------|
|-------------------------------------------------------------------|
|---------------------0-0-------------------------------------------|
|-9-9-------------9-9-----9-9-10-9--4-5----10-9--4-5----------------|
|-----8-8-----7-7-------------8--7--2-3----8--7--2-3----------------|
|---------0-0-----------------8--7--2-3----8--7--2-3----------------|


Riff 2

|-------------------------------------------------------------------|
|-------------------------------------------------------------------|
|-------------------------------------------------------------------|
|-4-4-4-4-5-5-4-4-9-9-9-9-5-5---------------------------------------|
|-2-2-2-2-3-3-2-2-7-7-7-7-3-3---------------------------------------|
|-2-2-2-2-3-3-2-2-7-7-7-7-3-3---------------------------------------|


Riff 3

|-------------------------------------------------------------------|
|-------------------------------------------------------------------|
|-7-7-8-8-10-10-7-7-8-8-10-10-------------------------7-7-8-8-10-10-|
|-----------------------------8-8-7-7-8-8-11-11-11-11---------------|
|-----------------------------6-6-5-5-6-6-9--9--9--9----------------|
|-------------------------------------------------------------------|

|-----------------------------------|-------------------------------|
|-----------------------------------|-------------------------------|
|-7-7-8-8-10-10---------------------|-------------------------------|
|---------------8-8-7-7-8-8-4-4-4-4-|-8-8-7-7-8-8-5-5---------------|
|---------------6-6-5-5-6-6-2-2-2-2-|-6-6-5-5-6-6-3-3---------------|
|-----------------------------------|-------------------------------|


Riff 4

|-------------------------------------------------------------------|
|-------------------------------------------------------------------|
|-------------------------------------------------------------------|
|-7-7-7-7-8-8-8-8-7-7-7-7---------8-8-------------------------------|
|-5-5-5-5-6-6-6-6-5-5-5-5-7-7-8-8-6-6-------------------------------|
|-5-5-5-5-6-6-6-6-5-5-5-5-5-5-6-6-----------------------------------|


Riff 5

|-------------------------------------------------------------------|
|-------------------------------------------------------------------|
|---------------------------------6-6-------------------------------|
|-------------------------6-6-7-7-----7-7-4-4-----------------------|
|-8-8-5-5-8-8-5-5-4-4-4-4---------------------8-8-5-5-8-8-5-5-4-4-2-|
|-------------------------------------------------------------------|

|-------------------------------------------------------------------|
|-------------------------------------------------------------------|
|-------------------------------------------------------------------|
|-------------------------------------------------------------------|
|-2-1-1-------------------------------------------------------------|
|-------3-3-2-2-0-0-2-2-3-3-----------------------------------------|

Добавлено: 09.05.2012
Другие материалы по этой песне:

Страница создана 06.03.2012
http://primanota.ru/marduk/with-satan-and-victorious-weapons-chords.htm
Привет, Гость.
Предлагаем пройти революционный курс по гитаре.
Подарок от PrimaNota.Ru, забирай!