PrimaNota.ru - самый крупный в мире бесплатный архив песенных текстов, аккордов, табулатур и нот


Marduk - The Hangman Of Prague - текст песни, таба, видео

Регистрация Запомнить меня
Войти через:  Facebook Google Twitter Vk Yandex Mail.ru

Marduk - The Hangman Of Prague - текст песни, таба, видео

Печатать
Просмотров: 178
Band:  Marduk
Album: The Hangman of Prague
Song:  Plague Angel

Copyright (c)  Blooddawn/Regain Records 2004
Version 1.0 - May 2007

Transcribed By: RedScorpion
Email:          beardedwanker@hotmail.com


.  - palm mute           /  - slide up to
\  - slide down to       ~  - vibrato
h  - hammer on           b  - Bend
p  - pull off            Suffixes for bend
t  - tap                 f  - full bend    h - half bend
ph - pinched harmonic    q  - quarter bend t - tap bend
*  - see comment         ^  - Hold bend    r release bend
x  - Stuccatto           ~  - vibrato bend
,  - slight palm mute    () - ghost note, sustained note
"  - tremolo note        <> - Trill

Tuning E A D G B E


Riff A

|-------------------------------------------|----------------------|
|-------------------------------------------|----------------------|
|o-----------------------------------------o|----------------------|
|o--2------9--7\6-10-10-10-10-10-10-10-10--o|----------------------|
|---2------7--5\4-8--8--8--8--8--8--8--8----|--7-7-5-4-5-5-5-5-5-5-|
|---0--0-0----------------------------------|----------------------|


|------------------------|
|------------------------|
|-----------------------o|
|-----------------------o|
|--8-8-7-5-8-8-8-8-8-8---|
|------------------------|


Riff B

|-------------------------|------------------|
|-------------------------|------------------|
|o-----------------------o|-----------------o|
|o--13-13-10-10-9-9-9-9--o|--7-7-9-9-10-10--o|
|---11-11-8--8--7-7-7-7---|--5-5-7-7-8--8----|
|-------------------------|------------------|


Riff A repeat

Riff B repeat


Riff C

|-----------------------------------------------------|
|-----------------------------------------------------|
|o---------------------------------------------------o|
|o----------2-2-5-5-3-3-2-2---------2-2--------------o|
|-------2-2---------------------2-2-----1-1-1-1-1-----|
|---0-0---------------------0-0-------------------3---|


Riff A repeat


Riff D

|----------------------------|----------------------|
|----------------------------|----------------------|
|o--------------------------o|---------------------o|
|o--------------------------o|------7-7-8-8-7p8h7--o|
|---7-10p7-10p7-10p7-10h11---|--5-5-----------------|
|---0------------------------|----------------------|


Riff A repeat

Riff B repeat

Riff C repeat


Riff E

|-----------------------------------------------------|
|-----------------------------------------------------|
|o----------2-2-5-5-3-3-2-2---------2-2--------------o|
|o------2-2---------------------2-2-----1-1-1-1-1----o|
|---0-0---------------------0-0-------------------3---|
|-----------------------------------------------------|


Riff D repeat

THE END
Добавлено: 10.03.2012
Другие материалы по этой песне:

Страница создана 10.03.2012
http://primanota.ru/marduk/the-hangman-of-prague-chords.htm
Привет, Гость.
Предлагаем пройти революционный курс по гитаре.
Подарок от PrimaNota.Ru, забирай!