PrimaNota.ru - самый крупный в мире бесплатный архив песенных текстов, аккордов, табулатур и нот


Marduk - Cold Mouth Prayer - таба, видео

Регистрация Запомнить меня
Войти через:  Facebook Google Twitter Vk Yandex Mail.ru

Marduk - Cold Mouth Prayer - таба, видео

Печатать
Просмотров: 108
Band:  Marduk
Album: Rom 5.12
Song:  Cold Mouth Prayer

Copyright (c)  Regain Records/Blooddawn 2007
Version 1.0 - May 2007

Transcribed By: Reds
Email:          beardedwanker@hotmail.com


.  - palm mute           /  - slide up to
\  - slide down to       ~  - vibrato
h  - hammer on           b  - Bend
p  - pull off            Suffixes for bend
t  - tap                 f  - full bend    h - half bend
ph - pinched harmonic    q  - quarter bend t - tap bend
*  - see comment         ^  - Hold bend    r release bend
x  - Stuccatto           ~  - vibrato bend
,  - slight palm mute    () - ghost note, sustained note
"  - tremolo note        <> - Trill

Tuning E A D G B E


Riff A I

|---------------------------------------------------------|
|---------------------------------------------------------|
|o---------------4-4-4-4-4-4"--------------5-5-5-5-5-5"--o|
|o---------------5-5-5-5-5-5"-5-5-5-5-5-5"-5-5-5-5-5-5"--o|
|---2-2-2-2-2-2"--------------3-3-3-3-3-3"----------------|
|---0-0-0-0-0-0"------------------------------------------|


Riff A 2

|---------------------------------------------------------|
|---------------------------------------------------------|
|o---------------5-5-5-5-5-5"--------------5-5-5-5-5-5"--o|
|o---------------7-7-7-7-7-7"--------------7-7-7-7-7-7"--o|
|---7-7-7-7-7-7"--------------3-3-3-3-3-3"----------------|
|---5-5-5-5-5-5"--------------5-5-5-5-5-5"----------------|


Riff B

|--------------------------------------------------------|
|--------------------------------------------------------|
|o-------------------------------------------------------|
|o--2-2-2-2-9/14-13-13-13-13--2-2-2-2-9/14-13-13-13-13---|
|---0-0-0-0-7/12-11-11-11-11--0-0-0-0-7/12-11-11-11-11---|
|--------------------------------------------------------|

|-----------------------------------------------------|
|-----------------------------------------------------|
|----------------------------------------------------o|
|--2-2-2-2-9/14-13-13-13-13--10-10-10-10-10-10-10-9--o|
|--0-0-0-0-7/12-11-11-11-11--8--8--8--8--8--8--8--7---|
|-----------------------------------------------------|


Riff C

|--------------------------------------------------------|
|--------------------------------------------------------|
|--------------------------------------------------------|
|---7/9-9-9-9-9-9-9-7-7-7-9-9-9-5-5-5-7-7-7-3-3-3-5-5-5--|
|---5/7-7-7-7-7-7-7-5-5-5-7-7-7-3-3-3-5-5-5-1-1-1-3-3-3--|
|--------------------------------------------------------|

|----------------------------------------|
|----------------------------------------|
|---------------------------------------o|
|--2-2-2-2-2-2-2------2-2-2-2-2-2-2-----o|
|--0-0-0-0-0-0-0--3---0-0-0-0-0-0-0--3---|
|-----------------1------------------1---|


Riff B repeat

Riff C repeat

Riff D

|-----------------------------------------|
|-----------------------------------------|
|o---------------------------------------o|
|o--2-2-2-2-2-2-2------2-2-2-2-2-2-2-----o|
|---0-0-0-0-0-0-0--3---0-0-0-0-0-0-0--3---|
|------------------1------------------1---|


Riff E

|----------------------------------------------------|
|----------------------------------------------------|
|----------------------------------------------------|
|---2-2-2-2-2-2-3-3-3-5-5-5-7-7-7-5-5-5-3-3-3-7-7-7--|
|---0-0-0-0-0-0-1-1-1-3-3-3-5-5-5-3-3-3-1-1-1-5-5-5--|
|----------------------------------------------------|

|----------------------------------------|
|----------------------------------------|
|---------------------------------------o|
|--2-2-2-2-2-2-2------2-2-2-2-2-2-2-----o|
|--0-0-0-0-0-0-0--3---0-0-0-0-0-0-0--3---|
|-----------------1------------------1---|


Riff B repeat

Riff C repeat

Riff D repeat

Riff E repeat

Riff D repeat

The End
Добавлено: 18.06.2012
Другие материалы по этой песне:
  • Аккорды и текст

Страница создана 18.06.2012
http://primanota.ru/marduk/cold-mouth-prayer-chords.htm
Привет, Гость.
Предлагаем пройти революционный курс по гитаре.
Подарок от PrimaNota.Ru, забирай!