PrimaNota.ru - самый крупный в мире бесплатный архив песенных текстов, аккордов, табулатур и нот


Marduk - Imago Mortis - текст песни, таба, видео

Регистрация Запомнить меня
Войти через:  Facebook Google Twitter Vk Yandex Mail.ru

Marduk - Imago Mortis - текст песни, таба, видео

Печатать
Просмотров: 194
Уроки эстрадного вокала в Санкт-Петербурге
Band:  Marduk
Album: Rom 5.12
Song:  Imago Mortis

Copyright (c)  Blooddawn Productions 2007
Version 1.0 - April 2007

Transcribed By: RedS
Email:          beardedwanker@hotmail.com


.  - palm mute           /  - slide up to
\  - slide down to       ~  - vibrato
h  - hammer on           b  - Bend
p  - pull off            Suffixes for bend
t  - tap                 f  - full bend    h - half bend
ph - pinched harmonic    q  - quarter bend t - tap bend
*  - see comment         ^  - Hold bend    r release bend
x  - Stuccatto           ~  - vibrato bend
,  - slight palm mute    () - ghost note, sustained note
"  - tremolo note        <> - Trill


Tuning E A D G B E


For 1 guitar

Riff A

|-------------------------------------------------------------------|
|-------------------------------------------------------------------|
|o------------------------------------------------------------------|
|o-2---10--10-10--9--9-9--9-9-9--10--10--10-10--9--9-9--9-9-9-------|
|--2----7---7--7--7--7-7--7-7-7---7---7---7--7--7--7-7--7-7-7-------|
|--0----------------------------------------------------------------|

|-----------------------------|
|-----------------------------|
|----------------------------o|
|--5--5--5-5--3--3--5-3-5-3--o|
|--5--5--5-5--3--3--5-3-5-3---|
|--3--3--3-3--1--1--3-1-3-1---|


Riff B
                                        I               II
|-------------------------------------|--------------|---------------|
|-------------------------------------|--------------|---------------|
|o------------------------------------|--------------|--------------o|
|o-2----3-2-3-5----3-5-3-2------------|--------------|------7-9--5--o|
|--2----3-2-3-5----3-5-3-2---7h8p7-5~-|-7h8-7-8-10~--|--7h8-8-10-7---|
|--0----1-0-1-3----1-3-1-0------------|--------------|---------------|


Riff A repeat


Riff C

|----------------------|
|----------------------|
|o--------------------o|
|o--3--3-3--2---------o|
|---2--2-2--2----------|
|---1--1-1--0--4-4-1~--|


Riff D

|-----------------------------------------------------------------|
|-----------------------------------------------------------------|
|o----------------------------------------------------------------|
|o--9---9--9--9--9---10--10-10-10-10--9---9--9--9--9---7--7-7-7-7-|
|---10--10-10-10-10--12--12-12-12-12--10--10-10-10-10--9--9-9-9-9-|
|-----------------------------------------------------------------|

|-------------------------------------------------------------------|
|-------------------------------------------------------------------|
|-------------------------------------------------------------------|
|-7/9---9--9--9--9--9---9--9--9--9--9---9--9--9--9--9---9--9--9--9--|
|-9/10--10-10-10-10-10--10-10-10-10-10--10-10-10-10-10--10-10-10-10-|
|-------------------------------------------------------------------|

|---------------------------------------------------------------|
|---------------------------------------------------------------|
|---------------------------------------------------------------|
|-9---9--9--9--9---10--10-10-10-10--9---9--9--9--9---7--7-7-7-7-|
|-10--10-10-10-10--12--12-12-12-12--10--10-10-10-10--9--9-9-9-9-|
|---------------------------------------------------------------|

|----------------------------------|
|----------------------------------|
|---------------------------------o|
|-7\5--5-5-5-5--5-5--2-2-2-2-2-2--o|
|-9\7--7-7-7-7--7-7--3-3-3-3-3-3---|
|----------------------------------|


Riff E I

|--------------------------------------------------------------------|
|--------------------------------------------------------------------|
|o--------------------------10-10-10-10-10-10------------------------|
|o-------------------------------------------------------------------|
|---7--7-7-7-7--7--7-7-7-7--------------------7--7-7-7-7--7--7-7-7-7-|
|--------------------------------------------------------------------|

|-------------------------|
|-------------------------|
|--10-10-12-12-10-10-9-9-o|
|------------------------o|
|-------------------------|
|-------------------------|

Riff E II

|---------------------------------------------------------------------|
|---------------------------------------------------------------------|
|o--------------------------10-10-10-10-10-10-------------------------|
|o--------------------------------------------------------------------|
|---7--7-7-7-7--7--7-7-7-7--8--8--8--8--8--8---7--7-7-7-7--7--7-7-7-7-|
|---0--0-0-0-0--0--0-0-0-0---------------------0--0-0-0-0--0--0-0-0-0-|

|-------------------------|
|-------------------------|
|--10-10-12-12-10-10-9-9-o|
|------------------------o|
|--8--8--10-10-8--8--7-7--|
|-------------------------|

Riff E III

|---------------------------------------------------------------------|
|---------------------------------------------------------------------|
|o--------------------------10-10-10-10-10-10-------------------------|
|o--------------------------------------------------------------------|
|---2--2-2-2-2--2--2-2-2-2--8--8--8--8--8--8---2--2-2-2-2--2--2-2-2-2-|
|---0--0-0-0-0--0--0-0-0-0---------------------0--0-0-0-0--0--0-0-0-0-|

|-------------------------|
|-------------------------|
|--10-10-12-12-10-10-9-9-o|
|------------------------o|
|--8--8--10-10-8--8--7-7--|
|-------------------------|



Riff A repeat

Riff B repeat

Riff C repeat

Riff D repeat


THE END
Добавлено: 13.03.2012
Другие материалы по этой песне:
  • Аккорды и текст

Страница создана 13.03.2012
http://primanota.ru/marduk/imago-mortis-chords.htm
Привет, Гость.
Предлагаем пройти революционный курс по гитаре.
Подарок от PrimaNota.Ru, забирай!