PrimaNota.ru - самый крупный в мире бесплатный архив песенных текстов, аккордов, табулатур и нот


Marduk - Into Utter Madness - текст песни, таба, видео

Регистрация Запомнить меня
Войти через:  Facebook Google Twitter Vk Yandex Mail.ru

Marduk - Into Utter Madness - текст песни, таба, видео

Печатать
Просмотров: 134
Уроки эстрадного вокала в Санкт-Петербурге
Marduk
Wormwood
Into Utter Madness

100% correct
On Bass solo, note when 1 and 5 on the E string are strung they are supposed
to correspond to the guitar's chords F and A (1/3/3 & 5/7/7). So watch your timing.
Any questions or comments feel free to e-mail me @ thescornedofdeath@hotmail

Intro (fade in)
|----------------------------------|
|----------------------------------|
|-8--------------------------------|
|-8--------------------------------|
|-6--------------------------------|
|-6--------------------------------|

Riff A
|------------------------------------------------------------------|
|------------------------------------------------------------------|
|-7777776677777766777777668888886677777766777777667777776688888866-|
|-7777776677777766777777668888886677777766777777667777776688888866-|
|-5555554455555544555555446666664455555544555555445555554466666644-|
|------------------------------------------------------------------|

Riff B.1
|------------------------------------------------------------------|
|------------------------------------------------------------------|
|------------------------------------------------------------------|
|-8888887788888877888888779999997788888877888888778888887799999977-|
|-8888887788888877888888779999997788888877888888778888887799999977-|
|-6666665566666655666666557777775566666655666666556666665577777755-|

Riff A 

Riff B.2
|------------------------------------------------------------------|
|------------------------------------------------------------------|
|------------------------------------------------------------------|
|-8888887788888877888888779999997788888877888888778888887799995533-|
|-8888887788888877888888779999997788888877888888778888887799995533-|
|-6666665566666655666666557777775566666655666666556666665577773311-|

Riff C x2
|-------------------------------------------------------------------|
|-------------------------------------------------------------------|
|-------------------------------------------------------------------|
|-22222222-3-3-3-22222222-3-3-3-22222222-3-3-3-22222222-2-3-5-6-5-6-|
|-22222222-3-3-3-22222222-3-3-3-22222222-3-3-3-22222222-2-3-5-6-5-6-|
|-00000000-1-1-1-00000000-1-1-1-00000000-1-1-1-00000000-0-1-3-4-3-4-|

Riff D x2
|----------------------------------------------|
|----------------------------------------------|
|-----9999----10101010----12121212----10101010-|
|-----9999----10101010----12121212----10101010-|
|-----7777----8-8-8-8-----10101010----8-8-8-8--|
|-0000----0000--------0000--------0000---------|

|--------------------------------------------|
|--------------------------------------------|
|-----9999----10101010----12121212----9/10\7-|
|-----9999----10101010----12121212----9/10\7-|
|-----7777----8-8-8-8-----10101010----7/8-\5-|
|-0000----0000--------0000--------0000-------|

Riff E (guitar on bass solo)
|-----------------------------------------------------------------|
|-----------------------------------------------------------------|
|-----------------------------------------------------------------|
|-3-3-3-3-7-7-7-7-3-3-3-3-7-7-7-7-3-3-3-3-7-7-7-7-3-3-3-3-7-7-7-7-|
|-3-3-3-3-7-7-7-7-3-3-3-3-7-7-7-7-3-3-3-3-7-7-7-7-3-3-3-3-7-7-7-7-|
|-1-1-1-1-5-5-5-5-1-1-1-1-5-5-5-5-1-1-1-1-5-5-5-5-1-1-1-1-5-5-5-5-|

Bass solo (you love me) x2 under Riff E (watch timing)
|-------------------------------------------------|
|--------------7/8-7--5------------------3-2-0-2--|
|---------------------------3--5-7----------------|
|1----1-0-5-------------1------------5------------|

Riff F
|----------------------------------------|
|----------------------------------------|
|-/10---9---7---9---/10---9---7---9------|
|-------------------------------------10-|
|----------------------------------------|
|----------------------------------------|

|-----------------------------------------------|
|-----------------------------------------------|
|-/10---9---7---9-10-9-9---/10---9---7---9------|
|--------------------------------------------10-|
|-----------------------------------------------|
|-----------------------------------------------|

2nd Guitar under 
Riff F (watch timing) x4
|----------|
|----------|
|----------|
|-33337777-|
|-33337777-|
|-11115555-|

Solo (tremolo picked except last note(19)) watch timing
|------------------------------------------------------------------------|
|-18--17-15-17--18--17-15-17------18--17-15-171817--18--17-15-17---------|
|-----------------------------17----------------------------------17--19-|
|------------------------------------------------------------------------|
|------------------------------------------------------------------------|
|------------------------------------------------------------------------|

2nd Guitar under 
Solo (watch timing) x4
|----------|
|----------|
|----------|
|-33337777-|
|-33337777-|
|-11115555-|

Riff A
Riff B.1
Riff A 
Riff B.2
Riff C x2
Riff D x2

Riff G x24 tremolo pick the slide up and down
|--------------|
|--------------|
|-2-////19\\\\-|
|-2-////19\\\\-|
|-0-////17\\\\-|
|--------------|

Riff H 
|------------------------------------------------|
|------------------------------------------------|
|-2212121212151515151414141414141414999910101010-|
|-2212121212151515151414141414141414999910101010-|
|-001010101013131313121212121212121277778-8-8-8--|
|------------------------------------------------|

Riff G x5
Riff H
Riff G x4

End on F Power Chord
2nd Guitar (fade out) like x24
|----------|
|----------|
|----------|
|-33337777-|
|-33337777-|
|-11115555-|

THEN GOGO BASE SOLO <33333
Добавлено: 22.07.2012
Другие материалы по этой песне:
  • Аккорды и текст

Страница создана 22.07.2012
http://primanota.ru/marduk/into-utter-madness-chords.htm
Привет, Гость.
Предлагаем пройти революционный курс по гитаре.
Подарок от PrimaNota.Ru, забирай!