PrimaNota.ru - самый крупный в мире бесплатный архив песенных текстов, аккордов, табулатур и нот


Marduk - Holy Blood Holy Grail - текст песни, таба, видео

Регистрация Запомнить меня
Войти через:  Facebook Google Twitter Vk Yandex Mail.ru

Marduk - Holy Blood Holy Grail - текст песни, таба, видео

Печатать
Просмотров: 183
Band:  Marduk
Album: Plague Angel
Song:  Holy Blood, Holy Grail

Copyright (c)  Blooddawn Productions 2004

Transcribed By: Wolfsherz/Jens Cautereels
Email:          cautereels.jens@gmail.com

Tuning: EADGBe
e --------------------------------------|
B --------------------------------------|
G --------------------------------------|
D --------------------------------------|
A --------------------------------------|
E -00-1-3-00-1-3-00-1-3-44-11-----------| x8

e ----------------------------------------------------------------|
B ----------------------------------------------------------------|
G ----------------------------------------------------------------|
D -4444------------55-4444------------55--------------------------|
A -2222-5555-66-33-33-2222-5555-66-33-33--------------------------|
E ------3333-44-11---------3333-44-11-----------------------------| x2

e --------------------------------------|
B --------------------------------------|
G --------------------------------------|
D --------------------------------------|
A --------------------------------------|
E -00-1-3-00-1-3-00-1-3-44-11-----------| x8
Empire of Blood arise, Vengeance be our Holy Grail!
e ----------------------------------------------------------------|
B ----------------------------------------------------------------|
G ----------------------------------------------------------------|
D -4444------------55-4444------------55--------------------------|
A -2222-5555-66-33-33-2222-5555-66-33-33--------------------------|
E ------3333-44-11---------3333-44-11-----------------------------| x2
Our Holy Grail! Kill all the frail! Be our Holy Blood
e ----------------------------------------------------------------|
B ----------------------------------------------------------------|
G -99-77-99-1010-99-1010-1212-1010-1212-1414-1212-1010-1212-1010--|
D -99-77-99-1010-99-1010-1212-1010-1212-1414-1212-1010-1212-1010--|
A -77-55-77-8-8--77-8-8--1010-8-8--1010-1212-1010-8-8--1010-8-8---|
E ----------------------------------------------------------------| x4
Our Holy Grail!
e ----------------------------------------------------------------|
B ----------------------------------------------------------------|
G -1010101010101010-9-10------------------------------------------|
D -1010101010101010-9-10------------------------------------------|
A -8-8-8-8-8-8-8-8--7-8-------------------------------------------|
E ----------------------------------------------------------------| x4
Vengeance is mine, says the Lord, and I believe Him, I believe Him!
e ----------------------------------------------------------------|
B ----------------------------------------------------------------|
G -99-77-99-1010-99-1010-1212-1010-1212-1414-1212-1010-1212-1010--|
D -99-77-99-1010-99-1010-1212-1010-1212-1414-1212-1010-1212-1010--|
A -77-55-77-8-8--77-8-8--1010-8-8--1010-1212-1010-8-8--1010-8-8---|
E ----------------------------------------------------------------| x4

e ----------------------------------------------------------------|
B ----------------------------------------------------------------|
G -1010101010101010-9-10------------------------------------------|
D -1010101010101010-9-10------------------------------------------|
A -8-8-8-8-8-8-8-8--7-8-------------------------------------------|
E ----------------------------------------------------------------| x4

e ----------------------------------------------------------------|
B ----------------------------------------------------------------|
G -----99---1010-77-------------1010-77-------------1010-77-------|
D ------------------88-----99-----------88-----99-----------88----|
A ---77------------------77------------------77-------------------|
E -00----000-----------00----000-----------00----000--------------|
"Not a single straw shall nourish the Enemy, no man shall give Them
Englightement"
e ----------------------------------------------------------------|
B ----------------------------------------------------------------|
G -----99---1010-77-----------------------------------------------|
D ------------------88-77-55-33-00--------------------------------|
A ---77-----------------------------------------------------------|
E -00----000------------------------------------------------------|

e -------------------------------|
B -------------------------------|
G -------------------------------|
D -7777-88-77-1111-1010-88-55----|
A -5555-66-55-9-9--8-8--66-33----|
E -------------------------------| x4
No hand shall bid Them aid!
Every path will He find destroyed!
Every road, barred!
Nothing but death, Annihalation!
e ----------------------------------------------------------------|
B ----------------------------------------------------------------|
G -----99---1010-77-------------1010-77-------------1010-77-------|
D ------------------88-----99-----------88-----99-----------88----|
A ---77------------------77------------------77-------------------|
E -00----000-----------00----000-----------00----000--------------|
And Hatred shall greet Him, Hatred shall greet Him
e ----------------------------------------------------------------|
B ----------------------------------------------------------------|
G -----99---1010-77-----------------------------------------------|
D ------------------88-77-55-33-00--------------------------------|
A ---77-----------------------------------------------------------|
E -00----000------------------------------------------------------|

e -------------------------------|
B -------------------------------|
G -------------------------------|
D -7777-88-77-1111-1010-88-55----|
A -5555-66-55-9-9--8-8--66-33----|
E -------------------------------| x4

e ----------------------------------------------------------------|
B ----------------------------------------------------------------|
G -99-77-99-1010-99-1010-1212-1010-1212-1414-1212-1010-1212-1010--|
D -99-77-99-1010-99-1010-1212-1010-1212-1414-1212-1010-1212-1010--|
A -77-55-77-8-8--77-8-8--1010-8-8--1010-1212-1010-8-8--1010-8-8---|
E ----------------------------------------------------------------| x4

e ----------------------------------------------------------------|
B ----------------------------------------------------------------|
G -1010101010101010-9-10------------------------------------------|
D -1010101010101010-9-10------------------------------------------|
A -8-8-8-8-8-8-8-8--7-8-------------------------------------------|
E ----------------------------------------------------------------| x4
Vengeance is mine, says the Lord, and yes! I believe Him!

e --------------------------------------|
B --------------------------------------|
G --------------------------------------|
D --------------------------------------|
A --------------------------------------|
E -00-1-3-00-1-3-00-1-3-44-11-----------| x4

e ----------------------------------------------------------------|
B ----------------------------------------------------------------|
G ----------------------------------------------------------------|
D -4444------------55-4444------------55--------------------------|
A -2222-5555-66-33-33-2222-5555-66-33-33--------------------------|
E ------3333-44-11---------3333-44-11-----------------------------| x2
"Not a single straw shall nourish the Enemy, no man shall give Them
Englightement"
Добавлено: 25.04.2012
Другие материалы по этой песне:

Страница создана 02.04.2012
http://primanota.ru/marduk/holy-blood-holy-grail-chords.htm
Привет, Гость.
Предлагаем пройти революционный курс по гитаре.
Подарок от PrimaNota.Ru, забирай!