PrimaNota.ru - самый крупный в мире бесплатный архив песенных текстов, аккордов, табулатур и нот


Mac Demarco - Without Me - аккорды и текст, таба, бас-таба, видео

Регистрация Запомнить меня
Войти через:  Facebook Google Twitter Vk Yandex Mail.ru

Mac Demarco - Without Me - аккорды и текст, таба, бас-таба, видео

Печатать
Просмотров: 253
Without Me
Mac Demarco
---------------------------------------------------------------------------
                       Mac Demarco - Without Me
---------------------------------------------------------------------------
                        Tabbed by: gutturalguitar
                        Tuning: standard, capo on fret 1

                        Without Me (2015)
                        (Mac Demarco)

                        From: "Another One"
---------------------------------------------------------------------------
                        Dm11 (x53533)
                        Dm7b5 (xx0111)
                        D#aug (xx1003)
                        D7 (x5453x)
---------------------------------------------------------------------------
guitar part one:
e|-3-3------|
B|--5--5----|
G|----4--4--|
D|------7-5-|
A|----------|
E|----------|

guitar part two (at the end of every chorus):
e|---------|
B|--4-6----|
G|-7---7-5-|
D|---------|
A|---------|
E|---------|
----------------------------------------------------------------------------

C    C7M    Dm11    Dm7b5 

will she love me again 

C C7M    Dm11 Dm7b5

tomorrow

  C C7M   Dm11 Dm7b5

i don't know

      C C7M   Dm11 Dm7b5

don't think so

           C C7M   Dm11    Dm7b5

and that's fine, fine by me

   C    C7M    Dm11      Dm7b5

as long as, long as i know,

      C C7M   Dm11 Dm7b5

she's happy

C C7M   Dm11 Dm7b5

happy

C C7M   D7 G9

without me

C C7M   D7 G9

without me

C C7M   D7 G9

without me

C C7M   D#aug C

without me

C    C7M    Dm11      Dm7b5

will she find love again

C C7M   Dm11 Dm7b5

tomorrow

  C     C7M   Dm11 Dm7b5

i don't know

C C7M   Dm11 Dm7b5

i hope so

           C C7M    Dm11 Dm7b5

and that's fine, fine by me

   C    C7M   Dm11      Dm7b5

as long as, long as i know

      C C7M   Dm11 Dm7b5

she's happy  

C C7M   Dm11 Dm7b5

happy 

C C7M   D7 G9

without me

C C7M   D7 G9

without me

C C7M   D7 G9

without me

C C7M   D#aug C

without me
Добавлено: 26.09.2015
Другие материалы по этой песне:
  • Аккорды и текст

Страница создана 26.09.2015
http://primanota.ru/mac-demarco/without-me-chords.htm
Привет, Гость.
Предлагаем пройти революционный курс по гитаре.
Подарок от PrimaNota.Ru, забирай!