PrimaNota.ru - самый крупный в мире бесплатный архив песенных текстов, аккордов, табулатур и нот


Mac Demarco - Eating Like A Kid - таба, видео

Регистрация Запомнить меня
Войти через:  Facebook Google Twitter Vk Yandex Mail.ru

Mac Demarco - Eating Like A Kid - таба, видео

Печатать
Просмотров: 131
Уроки эстрадного вокала в Санкт-Петербурге
-------------------------------------------------------------------------------
                             Eating Like A Kid - Mac DeMarco
-------------------------------------------------------------------------------
Tabbed by: Cam Delger
E-mail:

To play along, this is the video that I tabbed out. https://www.youtube.com/watch?v=_HScSL3UsGs

Tuning:DADF#AD

CAPO 4

Intro
d |---------------------------------------------------------------------------|
A |--------------------------------------------------4------------------------|
F#|-------------------2---------2-----2h3-----0------0-----2-----0------------|
D |-------------------------3-------------------------------------------------|   x2
A |---0---0---0---0--------------------------------------------------0--0--0--|
D |-0---0---0---0---0---0----0----0-------0------0-----0------0----0--0--0----|  Continue the D and A rhythm

d |-0-------0--------0--------0--------0--------------------------------------|
A |-0-------0--------0--------0--------0--------------------------------------|
F#|-0-------0--------0--------0--------0--------------------------------------|
D |-0-------0--------0--------0--------0--------------------------------------|   x2
A |-0---0---2--------2--------4--------2----2---2---2---2---2---2---2---2-----|
D |-0-------0--2--4--0--2--4--0--2--4--0--0---0---0---0---0---0---0---0-------|

d |-------------------------------------7-------------------------------------|
A |-5-----------------------------------7-------------------------------------|
F#|-5-----------------------------------7-------------------------------------|
D |-5-----------------------------------7-------------------------------------|
A |-7----7---7---7---7---7---7---7---7--9----9---9---9---9---9---9---9--------|
D |-5--5---5---5---5---5---5---5---5----7--7---7---7---7---7---7---7----------|

d |-7--5--------------------------------8--7--5-------------------------------|
A |-7--5--------------------------------8--7--5-------------------------------|
F#|-7--5--------------------------------8--7--5-------------------------------|
D |-7--5--------------------------------8--7--5-------------------------------|
A |-9--7----7---7---7---7---7---7---7---10-9--7----7---7---7---7---7---7---7--|
D |-7--5--5---5---5---5---5---5---5-----8--7--5--5---5---5---5---5---5---5----|


d |-0------------------------------------------------------------------------|
A |-0------------------------------------------------------------------------|
F#|-0------------------------------------------------------------------------|
D |-0------------------------------------------------------------------------|
A |-0----0---0---0---0---0---0---0---0---0---0---0---0---0---0---0---0-------|
D |-0--0---0---0---0---0---0---0---0---0---0---0---0---0---0---0---0---------|

d |-0-------0--------0--------0--------0--------------------------------------|
A |-0-------0--------0--------0--------0--------------------------------------|
F#|-0-------0--------0--------0--------0--------------------------------------|
D |-0-------0--------0--------0--------0--------------------------------------|   x2
A |-0---0---2--------2--------4--------2----2---2---2---2---2---2---2---2-----|
D |-0-------0--2--4--0--2--4--0--2--4--0--0---0---0---0---0---0---0---0-------|

d |-------------------------------------7-------------------------------------|
A |-5-----------------------------------7-------------------------------------|
F#|-5-----------------------------------7-------------------------------------|
D |-5-----------------------------------7-------------------------------------|
A |-7----7---7---7---7---7---7---7---7--9----9---9---9---9---9---9---9--------|
D |-5--5---5---5---5---5---5---5---5----7--7---7---7---7---7---7---7----------|

d |-7--5--------------------------------8--7--5-------------------------------|
A |-7--5--------------------------------8--7--5-------------------------------|
F#|-7--5--------------------------------8--7--5-------------------------------|
D |-7--5--------------------------------8--7--5-------------------------------|
A |-9--7----7---7---7---7---7---7---7---10-9--7----7---7---7---7---7---7---7--|
D |-7--5--5---5---5---5---5---5---5-----8--7--5--5---5---5---5---5---5---5----|

d |-0------------------------------------------------------------------------|
A |-0------------------------------------------------------------------------|
F#|-0------------------------------------------------------------------------|
D |-0------------------------------------------------------------------------|
A |-0----0---0---0---0---0---0---0---0---0---0---0---0---0---0---0---0-------|
D |-0--0---0---0---0---0---0---0---0---0---0---0---0---0---0---0---0---------|

d |---------------------------------------------------------------------------|
A |--------------------------------------------------4------------------------|
F#|-------------------2---------2-----2h3-----0------0-----2-----0------------|
D |-------------------------3-------------------------------------------------|   x2
A |---0---0---0---0--------------------------------------------------0--0--0--|
D |-0---0---0---0---0---0----0----0-------0------0-----0------0----0--0--0----|  



************************************

| /   slide up
| \   slide down
| h   hammer-on
| p   pull-off
| ~   vibrato
| +   harmonic
| x   Mute note
| b   Bend
| pb  Pre-bend
| br  Bend release
| pbr Pre-bend release
| brb Bend release bend

************************************
Добавлено: 26.09.2015
Другие материалы по этой песне:
  • Аккорды и текст

Страница создана 26.09.2015
http://primanota.ru/mac-demarco/eating-like-a-kid-chords.htm
Привет, Гость.
Предлагаем пройти революционный курс по гитаре.
Подарок от PrimaNota.Ru, забирай!