PrimaNota.ru - самый крупный в мире бесплатный архив песенных текстов, аккордов, табулатур и нот


Mac Demarco - Avocado Andrew - таба, видео

Регистрация Запомнить меня
Войти через:  Facebook Google Twitter Vk Yandex Mail.ru

Mac Demarco - Avocado Andrew - таба, видео

Печатать
Просмотров: 135
What up, its Ron, this here is my very first tablature that I have ever tabbed so if you see any mistakes 
feel free to correct them with harsh language. But anyway please enjoy this beautiful tune (which I wish was a 
bit longer) written by yours truly: Vernor Winfield Macbriare Smith IV

-------------------------------------------------------------------------------
                             Avocado Andrew - Mac Demarco
-------------------------------------------------------------------------------
Tabbed by: Ron Hambone


Tuning: Standard

e|------------------------10/12-------12-------------------------------------|
B|----12--12--12/17-------------12-14----14-----14-14\12---10/12-10-12-10----|
G|---------------------------------------------------------------------------|
D|---------------------------------------------------------------------------|
A|---------------------------------------------------------------------------|
E|---------------------------------------------------------------------------|

e|---------------------------------------------------------------------------|
B|-10/12-12-10-12-10----10h12p10----------------------10-----------10/14\12--|
G|-------------------------------13-11------9-11-11------11p9-11-------------|
D|--------------------------------------9/11---------------------------------|
A|---------------------------------------------------------------------------|
E|---------------------------------------------------------------------------|

e|----------------------------10/12-------12---------------------------------|
B|-12-12-12-12-12---12-12/17--------12-14----14\12---10/12--12-12-12/14------|
G|---------------------------------------------------------------------------|
D|---------------------------------------------------------------------------|
A|---------------------------------------------------------------------------|
E|---------------------------------------------------------------------------|

e|------------------------------------------------------------------------------|
B|-10/12-12-10-10-10---8/10-8-10--10-7-9-7--------5-7--------10/12--12p10--10---|
G|--------------------------------------------4/6-----6\4---------11-----11--\9-|
D|------------------------------------------------------------------------------|
A|------------------------------------------------------------------------------|
E|------------------------------------------------------------------------------|

e|---------------------------------------------10/12-12-12--12-12\---10----------------------------------|
B|-10/12-12-12---10b-12---10-------------------------------------------12p10-12p10-----------------------|
G|-----------------------9---10b-7-9---7-7h9---------------------------------------11--11/13-13/14-14/16-|
D|-------------------------------------------------------------------------------------------------------|
A|-------------------------------------------------------------------------------------------------------|
E|-------------------------------------------------------------------------------------------------------|



************************************

| /   slide up
| \   slide down
| h   hammer-on
| p   pull-off
| ~   vibrato
| +   harmonic
| x   Mute note
| b   Bend
| pb  Pre-bend
| br  Bend release
| pbr Pre-bend release
| brb Bend release bend

************************************
Добавлено: 26.09.2015
Другие материалы по этой песне:
  • Аккорды и текст

Страница создана 26.09.2015
http://primanota.ru/mac-demarco/avocado-andrew-chords.htm
Привет, Гость.
Предлагаем пройти революционный курс по гитаре.
Подарок от PrimaNota.Ru, забирай!