PrimaNota.ru - самый крупный в мире бесплатный архив песенных текстов, аккордов, табулатур и нот


Last Dinosaurs - Alps - таба, бас-таба, видео

Регистрация Запомнить меня
Войти через:  Facebook Google Twitter Vk Yandex Mail.ru

Last Dinosaurs - Alps - таба, бас-таба, видео

Печатать
Просмотров: 138
-------------------------------------------------------------------------------
                             Alps - Last Dinosaurs
-------------------------------------------------------------------------------
Tabbed by: Smofoable
E-mail: smofoable@gmail.com

Tuning: Standard

This tab includes Guitar 1. Guitar 2 may come later.

Intro:

e|------------5------------5------------11------------11---------------------|
B|------------7------------7------------12------------9----------------------|
G|------------6------------7------------11------------11---------------------| x3
D|------------7------------7------------13------------9----------------------|
A|------------5------------5------------11------------9----------------------|
E|---------------------------------------------------------------------------|

Verse:

e|---------------------------------------------------------11----------------11---------|
B|-------9---------------9-------9-----------9----------12----12----12----12----12----12|
G|-----8---8---8---8---8---8---9---9---9---9---9---9-11----------11----11----------11---|
D|---9-------9---9---9-------9-------9---9-------9--------------------------------------|
A|--------------------------------------------------------------------------------------|
E|--------------------------------------------------------------------------------------|

e|--------11-------------11--------------------------------------------------|
B|------9----9----9----9----9----9-------------------------------------------|
G|---11--------11---11--------11---------------------------------------------| x4
D|---------------------------------------------------------------------------|
A|---------------------------------------------------------------------------|
E|---------------------------------------------------------------------------|

Chorus:

            It seems these days...   they are...   yeah they're getting

e|----5-5-5-5-5-5-5-5-5-5-5-5---5-5-5------5-5-5-5-5-5-5-5-5-5-5-5---5-5-5---|
B|----7-7-7-7-7-7-7-7-7-7-7-7---7-7-7------7-7-7-7-7-7-7-7-7-7-7-7---7-7-7---|
G|----6-6-6-6-6-6-6-6-6-6-6-6---6-6-6------7-7-7-7-7-7-7-7-7-7-7-7---7-7-7---|
D|----7-7-7-7-7-7-7-7-7-7-7-7---7-7-7------7-7-7-7-7-7-7-7-7-7-7-7---7-7-7---|
A|---------------------------------------------------------------------------|
E|---------------------------------------------------------------------------|

      longer...                                     and longer...

e|---11-11-11-11-11-11-11-11-11-11-11-11---11-11-11------11-11-11-11-11-11-11-11-11-11-11-11---11-11-11-|
B|---12-12-12-12-12-12-12-12-12-12-12-12---12-12-12------9--9--9--9--9--9--9--9--9--9--9--9----9--9--9--|
G|---11-11-11-11-11-11-11-11-11-11-11-11---11-11-11------11-11-11-11-11-11-11-11-11-11-11-11---11-11-11-| x2
D|------------------------------------------------------------------------------------------------------|
A|------------------------------------------------------------------------------------------------------|
E|------------------------------------------------------------------------------------------------------|

Verse:

e|---------------------------------------------------------------------------|
B|---------------------------------------------------------------------------|
G|---------------------------------------------------------------------------| x5
D|-----6--4-----------6--4-----------6--4-----------6--4---------------------|
A|-----------6--------------6--------------6--------------6------------------|
E|---------------------------------------------------------------------------|

Chorus:

            It seems these days...   they are...   yeah they're getting

e|----5-5-5-5-5-5-5-5-5-5-5-5---5-5-5------5-5-5-5-5-5-5-5-5-5-5-5---5-5-5---|
B|----7-7-7-7-7-7-7-7-7-7-7-7---7-7-7------7-7-7-7-7-7-7-7-7-7-7-7---7-7-7---|
G|----6-6-6-6-6-6-6-6-6-6-6-6---6-6-6------7-7-7-7-7-7-7-7-7-7-7-7---7-7-7---|
D|----7-7-7-7-7-7-7-7-7-7-7-7---7-7-7------7-7-7-7-7-7-7-7-7-7-7-7---7-7-7---|
A|---------------------------------------------------------------------------|
E|---------------------------------------------------------------------------|

      longer...                                     and longer...

e|---11-11-11-11-11-11-11-11-11-11-11-11---11-11-11------11-11-11-11-11-11-11-11-11-11-11-11---11-11-11-|
B|---12-12-12-12-12-12-12-12-12-12-12-12---12-12-12------9--9--9--9--9--9--9--9--9--9--9--9----9--9--9--|
G|---11-11-11-11-11-11-11-11-11-11-11-11---11-11-11------11-11-11-11-11-11-11-11-11-11-11-11---11-11-11-| x2
D|------------------------------------------------------------------------------------------------------|
A|------------------------------------------------------------------------------------------------------|
E|------------------------------------------------------------------------------------------------------|


Refrain:

e|---------------------------------------------------------11----------------11---------|
B|-------9---------------9-------9-----------9----------12----12----12----12----12----12|
G|-----8---8---8---8---8---8---9---9---9---9---9---9-11----------11----11----------11---|
D|---9-------9---9---9-------9-------9---9-------9--------------------------------------|
A|--------------------------------------------------------------------------------------|
E|--------------------------------------------------------------------------------------|

e|--------11-------------11--------------------------------------------------|
B|------9----9----9----9----9----9-------------------------------------------|
G|---11--------11---11--------11---------------------------------------------| x2
D|---------------------------------------------------------------------------|
A|---------------------------------------------------------------------------|
E|---------------------------------------------------------------------------|

Chorus:

            It seems these days...   they are...   yeah they're getting

e|----5-5-5-5-5-5-5-5-5-5-5-5---5-5-5------5-5-5-5-5-5-5-5-5-5-5-5---5-5-5---|
B|----7-7-7-7-7-7-7-7-7-7-7-7---7-7-7------7-7-7-7-7-7-7-7-7-7-7-7---7-7-7---|
G|----6-6-6-6-6-6-6-6-6-6-6-6---6-6-6------7-7-7-7-7-7-7-7-7-7-7-7---7-7-7---|
D|----7-7-7-7-7-7-7-7-7-7-7-7---7-7-7------7-7-7-7-7-7-7-7-7-7-7-7---7-7-7---|
A|---------------------------------------------------------------------------|
E|---------------------------------------------------------------------------|

      longer...                                     and longer...

e|---11-11-11-11-11-11-11-11-11-11-11-11---11-11-11------11-11-11-11-11-11-11-11-11-11-11-11---11-11-11-|
B|---12-12-12-12-12-12-12-12-12-12-12-12---12-12-12------9--9--9--9--9--9--9--9--9--9--9--9----9--9--9--|
G|---11-11-11-11-11-11-11-11-11-11-11-11---11-11-11------11-11-11-11-11-11-11-11-11-11-11-11---11-11-11-| x4
D|------------------------------------------------------------------------------------------------------|
A|------------------------------------------------------------------------------------------------------|
E|------------------------------------------------------------------------------------------------------|

e|--------11-------------11--------------------------------------------------|
B|------9----9----9----9----9----9-------------------------------------------|
G|---11--------11---11--------11---------------------------------------------| 
D|---------------------------------------------------------------------------|
A|---------------------------------------------------------------------------|
E|---------------------------------------------------------------------------|





************************************

| /   slide up
| \   slide down
| h   hammer-on
| p   pull-off
| ~   vibrato
| +   harmonic
| x   Mute note
| b   Bend
| pb  Pre-bend
| br  Bend release
| pbr Pre-bend release
| brb Bend release bend

************************************
Добавлено: 30.04.2016
Другие материалы по этой песне:
  • Аккорды и текст

Страница создана 12.05.2012
http://primanota.ru/last-dinosaurs/alps-chords.htm
Привет, Гость.
Предлагаем пройти революционный курс по гитаре.
Подарок от PrimaNota.Ru, забирай!