PrimaNota.ru - самый крупный в мире бесплатный архив песенных текстов, аккордов, табулатур и нот


Last Dinosaurs - Evie - таба, бас-таба, видео

Регистрация Запомнить меня
Войти через:  Facebook Google Twitter Vk Yandex Mail.ru

Last Dinosaurs - Evie - таба, бас-таба, видео

Печатать
Просмотров: 125
INTRO

E----------------------------------------------------------------------------------------|
A----------------------------------------------------------------------------------------| its easy 
D--10--10--10--10--10--10--10--10-------10--10--10--10-------12--12--12--12--------------| if you 
G--9---9---9---9---9---9---9---9--------9---9---9---9--------11--11--11--11--------------| follow the
B--10--10--10--10--10--10--10--10-------8---8---8---8--------12--12--12--12--------------| rhythm of
e--8---8---8---8---8---8---8---8--------8---8---8---8--------10--10--10--10--------------| the song

-----------------------------------------------------------------------------------------|
--8--------------------------------------------------------------------------------------|  
--10---Follow dat rhythm-----10-----Follow it!!!!!---------------------------------------|
--9--------------------------9-----------------------------------------------------------|
--10-------------------------10----------------------------------------------------------|
--8--------------------------8-----------------------------------------------------------|

I cant remember when                    i felt like i could fall

E-----------------------------------------------------------------------------------------|
A----------------------------------------------------------------3------------------------|
D------------------10--------------------------------------------5------------------------| Just play
G------------------9---------------------------------------------4------------------------|  with
B------------------8---------------------------------------------5------------------------|  every
e------------------8---------------------------------------------3------------------------|  verse

THATS IT!!!!!! for now
Добавлено: 11.09.2015
Другие материалы по этой песне:
  • Аккорды и текст

Страница создана 11.09.2015
http://primanota.ru/last-dinosaurs/evie-chords.htm
Привет, Гость.
Предлагаем пройти революционный курс по гитаре.
Подарок от PrimaNota.Ru, забирай!