PrimaNota.ru - самый крупный в мире бесплатный архив песенных текстов, аккордов, табулатур и нот


Last Dinosaurs - Weekend - таба, бас-таба, видео

Регистрация Запомнить меня
Войти через:  Facebook Google Twitter Vk Yandex Mail.ru

Last Dinosaurs - Weekend - таба, бас-таба, видео

Печатать
Просмотров: 199
Уроки эстрадного вокала в Санкт-Петербурге
LAST DINOSAURS - WEEKEND
[INTRO]


Standard Tuning / No Capo

The Chord Is Some Sort Of G Chord.. I Really Don't Know

Enjoy!

e--3--3--3--4--3--------------------1--3--6--6--6--1--1--1--1-|
B-----------------3--3--3--3--4--3----------------------------|
G-------------------------------------------------------------|
D-------------------------------------------------------------|
A-------------------------------------------------------------|
E-------------------------------------------------------------|

And Here's The Solo..um..Thing...

e--------------------------15--------------15--------------------
B--13--13--13--13--11--13------13--11--13------13--11------------
G------------------------------------------------------12--12--12
D----------------------------------------------------------------
A----------------------------------------------------------------
E----------------------------------------------------------------

e--11--10--11--10------|THEN
B------------------13--|REPEAT
G----------------------|FIRST LINE
D----------------------|
A----------------------|
E----------------------|

Pretty Easy Eh!
Thanks! ;)
Добавлено: 09.07.2013
Другие материалы по этой песне:
  • Аккорды и текст

Страница создана 09.07.2013
http://primanota.ru/last-dinosaurs/weekend-chords.htm
Привет, Гость.
Предлагаем пройти революционный курс по гитаре.
Подарок от PrimaNota.Ru, забирай!