PrimaNota.ru - самый крупный в мире бесплатный архив песенных текстов, аккордов, табулатур и нот


Last Dinosaurs - Apollo - бас-таба, видео

Регистрация Запомнить меня
Войти через:  Facebook Google Twitter Vk Yandex Mail.ru

Last Dinosaurs - Apollo - бас-таба, видео

Печатать
Просмотров: 77
Tabbed by Jonathan Duong

Only have to tune first string (E) to C# since you'll only be using first string.
Play it however you want

Intro
G|----------------------------------------------------------------------------|
D|----------------------------------------------------------------------------|
A|----------------------------------------------------------------------------|
E|-7-5---3-3--3-0-3-3-4-5-5--5-0-5-3--2-2--2-0-2-5-6-7-7--7-0-7-5-------------|

G|----------------------------------------------------------------------------|
D|----------------------------------------------------------------------------|
A|----------------------------------------------------------------------------|
E|-------3-3--3-0-3-3-4-5-5--5-0-5-6--7-7--7-0-7--7-7--7-0-7-5----------------|

Verse 1
G|----------------------------------------------------------------------------|
D|----------------------------------------------------------------------------|
A|----------------------------------------------------------------------------|
E|-3-3--3-3--2-2--7-7-7-5--0-0--0-0--2-2--7-7-7-5-----------------------------|

G|----------------------------------------------------------------------------|
D|----------------------------------------------------------------------------|
A|----------------------------------------------------------------------------|
E|-3-3--3-3-5--2-2--7-7-7-5--0-0--5-5-3--2-2--7-7-7-5-------------------------|

Chorus
G|----------------------------------------------------------------------------|
D|----------------------------------------------------------------------------|
A|----------------------------------------------------------------------------|
E|-------3-3--3-0-3-3-4-5-5--5-0-5-3--2-2--2-0-2-5-6-7-7--7-0-7-5-------------|

G|----------------------------------------------------------------------------|
D|----------------------------------------------------------------------------|
A|----------------------------------------------------------------------------|
E|-------3-3--3-0-3-3-4-5-5--5-0-5-6--7-7--7-0-7--7-7--7-0-7-5----------------|

Verse 2
G|----------------------------------------------------------------------------|
D|----------------------------------------------------------------------------|
A|----------------------------------------------------------------------------|
E|-3-3--3-3--2-2--7-7-7-5--0-0--0-0--2-2--7-7-7-5-----------------------------|

G|----------------------------------------------------------------------------|
D|----------------------------------------------------------------------------|
A|----------------------------------------------------------------------------|
E|-3-3--3-3-5--2-2--7-7-7-5--0-0--5-5-3--2-2--7-7-7-5-------------------------|

Chorus
G|----------------------------------------------------------------------------|
D|----------------------------------------------------------------------------|
A|----------------------------------------------------------------------------|
E|-------3-3--3-0-3-3-4-5-5--5-0-5-3--2-2--2-0-2-5-6-7-7--7-0-7-5-------------|

G|----------------------------------------------------------------------------|
D|----------------------------------------------------------------------------|
A|----------------------------------------------------------------------------|
E|-------3-3--3-0-3-3-4-5-5--5-0-5-3--2-2--2-0-2-5-6-7-7--7-0-7-5-------------|

G|----------------------------------------------------------------------------|
D|----------------------------------------------------------------------------|
A|----------------------------------------------------------------------------|
E|-------3-3--3-0-3-3-4-5-5--5-0-5-3--2-2--2-0-2-5-6-7-7--7-0-7-5-------------|

G|----------------------------------------------------------------------------|
D|----------------------------------------------------------------------------|
A|----------------------------------------------------------------------------|
E|-------3-3--3-0-3-3-4-5-5--5-0-5-6--7-7--7-0-7--7-7--7-0-7-5----------------|

Bridge and Solo no bass

Chorus

G|----------------------------------------------------------------------------|
D|----------------------------------------------------------------------------|
A|----------------------------------------------------------------------------|
E|-----------------------------0-5-3--2-2--2-0-2--5-6-7-7--7-0-7-5------------|

G|----------------------------------------------------------------------------|
D|----------------------------------------------------------------------------|
A|----------------------------------------------------------------------------|
E|-------3-3--3-0-3-3-4-5-5--5-0-5-3--2-2--2-0-2-5-6-7-7--7-0-7-5-------------|

G|----------------------------------------------------------------------------|
D|----------------------------------------------------------------------------|
A|----------------------------------------------------------------------------|
E|-------3-3--3-0-3-3-4-5-5--5-0-5-3--2-2--2-0-2-5-6-7-7--7-0-7-5-------------|

G|----------------------------------------------------------------------------|
D|----------------------------------------------------------------------------|
A|----------------------------------------------------------------------------|
E|-------3-3--3-0-3-3-4-5-5--5-0-5-6--7-7--7-0-7--7-7--7-0-7-5-3--------------|
Добавлено: 11.09.2015
Другие материалы по этой песне:
  • Аккорды и текст

Страница создана 11.09.2015
http://primanota.ru/last-dinosaurs/apollo-chords.htm
Привет, Гость.
Предлагаем пройти революционный курс по гитаре.
Подарок от PrimaNota.Ru, забирай!