PrimaNota.ru - самый крупный в мире бесплатный архив песенных текстов, аккордов, табулатур и нот


Last Dinosaurs - Purist - таба, видео

Регистрация Запомнить меня
Войти через:  Facebook Google Twitter Vk Yandex Mail.ru

Last Dinosaurs - Purist - таба, видео

Печатать
Просмотров: 57
-------------------------------------------------------------------------------
                             Purist - Last Dinosaurs 
-------------------------------------------------------------------------------
Tabbed by: Alec M.
E-mail: I'd rather not


Trying to tab this song as accurately as possible for the good of people who, like me, have
realized how good this band is.  
This is being done completely by ear.

I'm enjoying learning this song. I hope this tab brings you the same.
Suggestions and corrections welcomed.   


* It is currently ALMOST finished. *  

Tuning: standard 

Intro (Repeat throughout verse. After the singing starts, the last chord is repeated in a 
different pattern):
e|--x-x-xx--x-x--x-xx-0--7-7-77-44-444--------------------------------------------------|
B|--7-7-77--7-7--7-77-0--7-7-77-44-444--------------------------------------------------|
G|--6-6-66--6-6--6-66-0--7-7-77-44-444--------------------------------------------------|
D|--0-0-00--0-0--0-00-0--7-7-77-44-444--------------------------------------------------|
A|--0-0-00--0-0--0-00-0--5-5-55-22-222--------------------------------------------------|
E|--x-x-xx--x-x--x-xx-x--x-x-xx-xx-xxx--------------------------------------------------|

Guitar 2:
"It's all that's meant to... (repeat 2x)
e|-----------------------------------------------------------------|
B|-14h15p--------------------------14h15p----------------17----15--|
G|-------14------------------14-16--------14----------------16-----|...beeeee yeahhhh awwww"
D|----------16-14-14-1414-16-----------------16-14-141414-----------|
A|-----------------------------------------------------------------|
E|-----------------------------------------------------------------|

After second time: 
B|---14~---|

During which the Pre-chorus starts.
Pre-chorus:
e|-5-5-5-55-5-55555--4-4-4-44-4-444----------------------------------------------------|
B|-5-5-5-55-5-55555--5-5-5-55-5-555----------------------------------------------------|
G|-6-6-6-66-6-66666--6-6-6-66-6-666----------------------------------------------------|
D|-7-7-7-77-7-77777--6-6-6-66-6-666----------------------------------------------------|
A|-7-7-7-77-7-77777--4-4-4-44-4-444----------------------------------------------------|
E|-5-5-5-55-5-55555--4-4-4-44-4-444----------------------------------------------------|

Chorus (repeat 4x):

***There are also some chords here. But they are hidden underneath quite a lot.  

e|-----------------------------------------------------|
B|-17~~~----------19-----------------------------------|
G|------16~~14~~18--18~~-------------------------------|
D|-----------------------------------------------------|
A|-----------------------------------------------------|
E|-----------------------------------------------------|

Solo after first chorus (repeat 2x):
e|------------------------------------------------------------------------------------|
B|------------------------------------------------------------------------------------|
G|------------------------------------------------------------------------------------|
D|-13h14--------------------------------------13h14-------------16-16-16--------------|
A|------17--16-16-16-14--16-14-16-14-12-12-12------17--16-16-14----------16-16-16-14--|
E|------------------------------------------------------------------------------------|

SEQUENCE FOR THE REST OF THE SONG:

Verse 2 (play intro chords, but strum each only once)
Guitar 2 riff again during "I'll always be different, yeahhhhh"
Pre-chorus
Chorus
Bridge (I still have to tab this, hang tight)
Then, you have the lyrics to the chorus, played with the intro chords (but with less distortion)
Then, normal chorus twice
Finally, lyrics from the first verse, played with the solo riff from after the first chorus

Then the song ends

************************************

| /   slide up
| \   slide down
| h   hammer-on
| p   pull-off
| ~   vibrato
| +   harmonic
| x   Mute note
| b   Bend
| pb  Pre-bend
| br  Bend release
| pbr Pre-bend release
| brb Bend release bend

************************************
Добавлено: 30.04.2016
Другие материалы по этой песне:
  • Аккорды и текст

Страница создана 30.04.2016
http://primanota.ru/last-dinosaurs/purist-chords.htm
Привет, Гость.
Предлагаем пройти революционный курс по гитаре.
Подарок от PrimaNota.Ru, забирай!