PrimaNota.ru - самый крупный в мире бесплатный архив песенных текстов, аккордов, табулатур и нот


Lacrimosa - Die schreie sind verstummt - текст песни, таба, видео

Регистрация Запомнить меня
Войти через:  Facebook Google Twitter Vk Yandex Mail.ru

Lacrimosa - Die schreie sind verstummt - текст песни, таба, видео

Печатать
Просмотров: 131


Band: Lacrimosa 
Title: Die Schreie sind verstummt 
Album: Echos
Musicians: Tilo Wolff, Anne Nurmi etc.
Transcribed by: Arahilion (lakeofthunder@hotmail.com)

Tuned to Eb
I think the guitar is even tuned to D, but it sounds well with Eb tuned guitar, too. 
There are several slides in the solos, but I think you can hear 
them by yourself, it's easy.

Guitar Solo 1 (ca . 2.35)

|-12-----11-12-11--16-16-11-11--12--14--13b14-11-----------------|
|------------------------------------------------15-13-11-15---13|
|------------------------------------------------------------14--|
|----------------------------------------------------------------|
|----------------------------------------------------------------|
|----------------------------------------------------------------|

|------------------------------11-11-16-16--12-11----------------|
|-11-15-13-12---12----------12--------------------12---11-9-15---|
|------------------14-12-14--------------------------------------|
|----------------------------------------------------------------|
|----------------------------------------------------------------|
|----------------------------------------------------------------|

|----------------------------------------------------------------|
|-13-15----12-13-14-15~------------------------------------------|
|-------14-------------------------------------------------------|
|----------------------------------------------------------------|
|----------------------------------------------------------------|
|----------------------------------------------------------------|


Guitar Solo 2 (ca . 8.00)


|-15----------------------------16--16---------------------------|
|------12-13-12-13-12-16---16---------16-12-13-14-15-16----------|
|----------------------------------------------------------------|
|----------------------------------------------------------------|
|----------------------------------------------------------------|
|----------------------------------------------------------------|

|-14--------------------------------------------15-12------------|
|----16-15----13-15-15----13-13--11--15-13-12--------------------|
|----------15----------------------------------------------------|
|----------------------------------------------------------------|
|----------------------------------------------------------------|
|----------------------------------------------------------------|

|------------16-------12---21-19-18-15-12----17-15-14-12--14-----|
|12-12-12-12---16--16---16----------------15-----------15--15-15~|
|----------------------------------------------------------------|
|----------------------------------------------------------------|
|----------------------------------------------------------------|
|----------------------------------------------------------------|

Добавлено: 04.12.2013
Другие материалы по этой песне:
  • Аккорды и текст

Страница создана 25.05.2012
http://primanota.ru/lacrimosa/die-schreie-sind-verstummt-chords.htm
Привет, Гость.
Предлагаем пройти революционный курс по гитаре.
Подарок от PrimaNota.Ru, забирай!