PrimaNota.ru - самый крупный в мире бесплатный архив песенных текстов, аккордов, табулатур и нот


Lacrimosa - Lichtgestalt - текст песни, таба, видео

Регистрация Запомнить меня
Войти через:  Facebook Google Twitter Vk Yandex Mail.ru

Lacrimosa - Lichtgestalt - текст песни, таба, видео

Печатать
Просмотров: 390
Intro Guitar 0:53 (Ich Bin)

|-------------------|
|-------------------|
|-------------------|
|--4-4-4-4-4-4-4-4--|
|--4-4-4-4-4-4-4-4--|
|--2-2-2-2-2-4-2-2--|

|-------------------|------------------|------------------|------------------|
|-------------------|------------------|------------------|------------------|
|-------------------|------------------|------------------|------------------|
|---8-8-8-8-8-8-8-8-|--3-3-3-3-3-3-3-3-|--4-4-4-4-4-4-4-5-|--6-6-6-6-6-6-6-8-|
|---8-8-8-8-8-8-8-8-|--3-3-3-3-3-3-3-3-|--4-4-4-4-4-4-4-5-|--6-6-6-6-6-6-6-8-|
|---6-6-6-6-6-6-6-6-|--1-1-1-1-1-1-1-1-|--2-2-2-2-2-2-2-3-|--4-4-4-4-4-4-4-6-|

|---------------|-------------------|--------------|
|---------------|-------------------|--------------|
|---------------|--4-4-4-4-4-4-4-4--|--------------|
|-8-8-8-8-8-8-8-|--4-4-4-4-4-4-4-4--|-6-6-6-6-8-8--|
|-8-8-8-8-8-8-8-|--2-2-2-2-2-2-2-2--|-6-6-6-6-8-8--|
|-6-6-6-6-6-6-6-|-------------------|-4-4-4-4-6-6--|

Chrous 1:05

|-----------------|-----------------|------------------|------------------|
|-----------------|-----------------|------------------|------------------|
|-----------------|-----------------|------------------|-----------4------|
|-4-4-4-4-4---4-4-|-4-4-4-4-4-3-4-6-|-8-8-8-8-8---8-8--|-8-8-8-8-8-4-8-6--|
|-4-4-4-4-4---4-4-|-4-4-4-4-4-3-4-6-|-8-8-8-8-8---8-8--|-8-8-8-8-8-2-8-6--|
|-2-2-2-2-2---2-2-|-2-2-2-2-2-1-2-4-|-6-6-6-6-6---6-6--|-6-6-6-6-6---6-4--|

|-----------------|----------------|-----------------|------------------|
|-----------------|----------------|-----------------|------------------|
|-8-8-8-8-8-8--8--|-6-6-6-6-6-6--6-|-4-4-4-4-4-4-4-4-|------------------|
|-8-8-8-8-8-8--8--|-6-6-6-6-6-6--6-|-4-4-4-4-4-4-4-4-|--8-8-8-8-8-8-8-8-|
|-6-6-6-6-6-6--6--|-4-4-4-4-4-4--4-|-2-2-2-2-2-2-2-2-|--8-8-8-8-8-8-8-8-|
|-----------------|----------------|-----------------|--6-6-6-6-6-6-6-6-|

|-----------------|-----------------|------------------|------------------|
|-----------------|-----------------|------------------|------------------|
|-----------------|-----------------|------------------|------------------|
|-4-4-4-4-4-4-4-4-|-4-4-4-4-4-1-4-6-|-8-8-8-8-8-8-8-8--|-8-8-8-8-8-8-8-6--|
|-4-4-4-4-4-4-4-4-|-4-4-4-4-4-1-4-6-|-8-8-8-8-8-8-8-8--|-8-8-8-8-8-8-8-6--|
|-2-2-2-2-2-2-2-2-|-2-2-2-2-2-3-2-4-|-6-6-6-6-6-6-6-6--|-6-6-6-6-6-6-6-4--|

|------------------|-----------------------------------|-----------------|
|------------------|-----------------------------------|-----------------|
|-8-8-8-8-8-8-8-8--|-6-6-6-6-6-6-6-6--4-4-4-4-4-4-4-4--|-----------------|
|-8-8-8-8-8-8-8-8--|-6-6-6-6-6-6-6-6--4-4-4-4-4-4-4-4--|-8-8-8-8-8-8-8-8-|
|-6-6-6-6-6-6-6-6--|-4-4-4-4-4-4-4-4--2-2-2-2-2-2-2-2--|-8-8-8-8-8-8-8-8-|

|------------------|-----------------------------------|-6-6-6-6-6-6-6-6-|

Bridge 1:51

|---------------------------------------------------------------------------|
|---------------------------------------------------------------------------|
|---------------------5-5-5--6-6-6-6--8-------------------------------------|
|-2-2-2-2-2-2--6-6-6--5-5-5--6-6-6-6--8---6-6-6-----------------------------|
|-2-2-2-2-2-2--6-6-6--3-3-3--4-4-4-4--6---6-6-6--4--------------------------|
|-0-0-0-0-0-0--4-4-4----------------------4-4-4--2-2-2-1-0------------------|

Verse 2 2:22 (Ich Bin)

|--------------------|-------------------|-----------------|----------------|
|--------------------|-------------------|-----------------|----------------|
|--------------------|--6-6---6---6-6-6--|-----------------|----------------|
|--4-4---4---4--6--4-|--6-6---6---6-6-6--|-8-8---8---8---8-|--8-8---8-8-8-8-|
|--4-4---4---4--6--4-|--4-4---4---4-4-4--|-8-8---8---8---8-|--8-8---8-8-8-8-|
|--2-2---2---2--4--2-|-------------------|-6-6---6---6---6-|--6-6---6-6-6-6-|

|--------------------|-------------------|-----------------|----------------|
|--------------------|-------------------|-----------------|----------------|
|--------------------|--6-6---6---6-6-6--|-----------------|----------------|
|--4-4---4---4--6--4-|--6-6---6---6-6-6--|-8-8---8---8---8-|--8-8---8-8-8-8-|
|--4-4---4---4--6--4-|--4-4---4---4-4-4--|-8-8---8---8---8-|--8-8---8-8-8-8-|
|--2-2---2---2--4--2-|-------------------|-6-6---6---6---6-|--6-6---6-6-6-6-|
Добавлено: 16.11.2013
Другие материалы по этой песне:
  • Аккорды и текст

Страница создана 10.07.2012
http://primanota.ru/lacrimosa/lichtgestalt-chords.htm
Привет, Гость.
Предлагаем пройти революционный курс по гитаре.
Подарок от PrimaNota.Ru, забирай!