PrimaNota.ru - самый крупный в мире бесплатный архив песенных текстов, аккордов, табулатур и нот


Lacrimosa - Kabinett Der Sinne - аккорды и текст, таба, видео

Регистрация Запомнить меня
Войти через:  Facebook Google Twitter Vk Yandex Mail.ru

Lacrimosa - Kabinett Der Sinne - аккорды и текст, таба, видео

Печатать
Просмотров: 201
Kabinett Der Sinne
Lacrimosa
^  - hammer on, pull off
b  - bend string up
r  - release bend
/  - slide up
  - slide down
~  - vibrato
T  - tap
x  - struck string
.  - play the note and then mute it
<  - raising volume
PM - palm mute
AH - Artificial Harmonic
 
Down D-Tunning

Intro:
[e----------------------------------------------------------------------------
B----------------------------------------------------------------------------
G-------------------------------------------7---------7----------------------
D--5---------5---------1---------1----------7---------7------7-7-7-7-5-5-3-3-
A--5---------5---------1---------1----------5---------5------5-5-5-5-3-3-1-1-
D--5---------5---------1---------1----/11/--0--------------------------------]
                                   PM.............

-----------------------------------------------------------------------------
-----------------------------------------------------------------------------
----------------------8---------8---------7---------7------------------------
--5---------5---------8---------8---------7---------7-------7-7-7-7-5-5-3-3--
--5---------5---------6---------6---------5---------5-------5-5-5-5-3-3-1-1--
--5---------5-----------------------11/---0---------0------------------------
                                  PM.............

------------------------------------------------------------------------
------------------------------------------------------------------------FIG1
---------------------------------------7--------7-----------------------
--5--------5--------1--------1---------7--------7------7-7-7-7-5-5-3-3--
--5--------5--------1--------1---------5--------5------5-5-5-5-3-3-1-1--
--5--------5--------1--------1------------------------------------------
                             PM.............

VERSE1: FIG1 } X2

INTERLUDE:
-Only keyboards and bass: G-Eb } X2, then...
-SOLOS: guitar 1&2 match (bass plays  C#m-G#m-B-Bb } X4)
GUITAR1:
----------------16-18-19-----18--16------19---18-19----19b21r19-18----17-18-
-17----16-14----------------------------------------------------------------
----------------------------------------------------------------------------
----------------------------------------------------------------------------
----------------------------------------------------------------------------
----------------------------------------------------------------------------
Guitar2:
----------------------------------------------------------------------------
----------------12-14-16-----14--12------16---14-16----16b17r16-15----14-15-
-13----11-9-----------------------------------------------------------------
----------------------------------------------------------------------------
----------------------------------------------------------------------------
----------------------------------------------------------------------------

GUITAR1:
----------------------------------------------------------------------------
-17----16-14----16-17-16-----14--16------16---14-16----16b17r16-15----------
----------------------------------------------------------------------15----
-------------------------------------------------------------------------15-
----------------------------------------------------------------------------
----------------------------------------------------------------------------
Guitar2:
----------------------------------------------------------------------------
----------------12-14-16-----14--12-----------------------------------------
-13----11-9------------------------------11----9-11----13-11----10----------
----------------------------------------------------------------------12----
-------------------------------------------------------------------------13-
----------------------------------------------------------------------------
(last 4 bars X2)

AFTER SOLOS:
----------------------------------------------------------------------------
----------------------------------------------------------------------------
-------------------------5--------5--------7--------7-----------------------
-------2--------2--------5--------5--------7--------7------7-7-7-7-5-5-3-3--
-------2--------2--------3--------3--------5--------5------5-5-5-5-3-3-1-1--
-14/---2--------2--------------------------0--------------------------------
           PM.............

THEN:
-FIG1 } X1

VERSE2:
-FIG1 } X1
and:
-----------------------------------------------------------------------
-----------------------------------------------------------------------
--------------------------------------7--------7-----------------------
-5--------5--------1--------1---------7--------7------7777777777777777-
-5--------5--------1--------1---------5--------5------5555555555555555-
-5--------5--------1--------1---------0--------0-----------------------
            PM..............

OUTRO:
-----------------------------------------------------------------
-----------------------------------------------------------------
-----------------------------------------------------------------
-----6-----6---6-----6-----6---6-----6-----6---6-----6-----6---6-----
-44444-44444-444-44444-44444-444-----6-----6---6-----6-----6---6-    
---------------------------------66666-66666-666-66666-66666-666-    
  PM..  ....  ..  ....  ....  ..  ....  ....  ..  ....  ....  ..       
                                            } X5
-----------------------------------------------------------------    
-----------------------------------------------------------------    
---------------------------------------------------------------------
-----4-----4---4-----4-----4---4-----3-----3---3-----3-----3---3-
-22222-22222-222-22222-22222-222-11111-11111-111-11111-11111-111-
-----------------------------------------------------------------
  ....  ....  ..  ....  ....  ..  ....  ....  ..  ....  ....  ..

END:
--------------------
--------------------
--------------------
--6-/.-----4-3-6----
--4-/.-----2-1-6----
---------------6----
Добавлено: 19.12.2013
Другие материалы по этой песне:
  • Аккорды и текст

Страница создана 14.03.2012
http://primanota.ru/lacrimosa/kabinett-der-sinne-chords.htm
Привет, Гость.
Предлагаем пройти революционный курс по гитаре.
Подарок от PrimaNota.Ru, забирай!