PrimaNota.ru - самый крупный в мире бесплатный архив песенных текстов, аккордов, табулатур и нот


Lacrimosa - Seele in Not - аккорды и текст, таба, видео

Регистрация Запомнить меня
Войти через:  Facebook Google Twitter Vk Yandex Mail.ru

Lacrimosa - Seele in Not - аккорды и текст, таба, видео

Печатать
Просмотров: 388
Уроки эстрадного вокала в Санкт-Петербурге
Авторы музыки: Tilo Wolff
Авторы текста: Tilo Wolff
Seele in Not
Lacrimosa
^  - hammer on, pull off
b  - bend string up
r  - release bend
/  - slide up
  - slide down
~  - vibrato
T  - tap
x  - struck string
.  - play the note and then mute it
<  - raising volume
PM - palm mute
AH - Artificial Harmonic
 
Intro:
Bass: A-G-F-E alone

 Guitar2: /
 Guitar1:
[e-------------------------------------------
B---------------5-6-5-----------------------
G------9-7-5-7------------2-4-5-4--2-4-5----]
[D-(7)-----------------5------------------3--]------
[A-------------------------------------------]      
[E-------------------------------------------]      
                                  SOLO1
[------------------------------------------------]  
[------------------------------------------------]  
[-----5-4---2-2-2-2/4-4-4-4/5-5-5-5/7-7--5-4-(5)-]--
[-5-7--------------------------------------------] Here "5" is in brackets
[------------------------------------------------] because it is played as the
[------------------------------------------------] beginning of SOLO1 (instead
                                 of "7") when it is played
                                 for the 2nd time.
Guitar1: SOLO1 (instead of "7" play "5")
Guitar2:
--------------------------------------------------------------
--------------------------------------------------------------
--------------------------------------------------------------
--/x--/x--/x--/x--/x--/x-----x-x-----/x--/x--/x--/x--/x--/x---
--/x--/x--/x--/x--/x--/x-----x-x-----/x--/x--/x--/x--/x--/x---
--/x--/x--/x--/x--/x--/x-----x-x-----/x--/x--/x--/x--/x--/x---

Guitar1: SOLO1 (instead of "7" play "5")
Guitar2:
-------------------------------------------------------------------
-------------------------------------------------------------------
-------------------------------------------------------------------FIG1
-------------------------------------------------------------------
-7777777777777777555555555555555533333333333333332222222222222222--
-5555555555555555333333333333333311111111111111110000000000000000--
  PM......................................................

Guitar1&2:
------------------------------------------------
------------------------------------------------
------------------------------------------------
----------------------------------------------------
-7----7------7----7------5----5------5----5-----    
-5--5-5--555-5--5-5--555-3--3-3--333-3--3-3-333-    FIG2
     PM   ...    .    ...    .    ...    .   ...      
------------------------------------------------     } X2
------------------------------------------------    
----------------------------------------------------
------------------------------------------------
-3----3------3----3------2----2------2----2-----
-1--1-1--111-1--1-1--111-0--0-0--000-0--0-0-000-
     .    ...    .    ...    .    ...    .   ...

VERSE1:
-only keyboards A-G-F-E } X2
-then:
-------------------------------------------
-------------------------------------------
-------------------------------------------FIG3
-------------------------------------------
--7-7.-----5-5.-----3-3.----2~---22222222--
--5-5.-----3-3.-----1-1.----0~---00000000--

-then: FIG2 } X2

VERSE2:
-only keyboards A-G-F-E } X1
-FIG3 } X1:
-FIG1 } X1:
-only keyboards A-G } X1
-then:
------------------------------------
------------------------------------
------------------------------------
------------------------------------
--33333333333333332222222222222222--
--11111111111111110000000000000000--
   PM.................................

VERSE3:
-FIG2 } X1
-FIG1 } X1
-FIG2 } X2

VERSE4:
-SOLO1 } X2

END:
-FIG2 } X8
Добавлено: 29.01.2014
Другие материалы по этой песне:
  • Аккорды и текст

Страница создана 18.06.2012
http://primanota.ru/lacrimosa/seele-in-not-chords.htm
Привет, Гость.
Предлагаем пройти революционный курс по гитаре.
Подарок от PrimaNota.Ru, забирай!