PrimaNota.ru - самый крупный в мире бесплатный архив песенных текстов, аккордов, табулатур и нот


Korn - Ever Be - текст песни, таба, видео

Регистрация Запомнить меня
Войти через:  Facebook Google Twitter Vk Yandex Mail.ru

Korn - Ever Be - текст песни, таба, видео

Печатать
Просмотров: 158
Авторы: Zac Baird, The Matrix, Korn, Terry Bozzio

KoRn - Ever Be - Untitled

Tabbed by Elvisz (elvisz84@yahoo.com)
Tuning : 7 String Tuned Low to High (A D G C F a d)

Vocal: Jonathan Houseman Davis 'Hiv'
Guitar: James Randal Shaffer 'Munky'
Bass: Reginald Arvizu 'Fieldy'
Drums: Terry Bozzio

Intro:
d|------------------------------------------|
a|------------------------------------------|
F|-9999////////////21212121\\\\\\\8x8x8x8x8x|
C|------------------------------------------|
G|------------------------------------------|
D|------------------------------------------|
A|------------------------------------------|

Verse:
(guitar1)
d|---------------------------------------|
a|---------------------------------------|
F|-16~-16~-17~-14~---16~-16~-17~---------|
C|-------------------------------16~-14~-|
G|---------------------------------------|
D|---------------------------------------|
A|---------------------------------------|

d|------------------------------------------------------------------|
a|------------------------------------------------------------------|
F|-1616161616161616161616161616161617171717171717171414141414141414-|
C|------------------------------------------------------------------|
G|------------------------------------------------------------------|
D|------------------------------------------------------------------|
A|------------------------------------------------------------------|

d|------------------------------------------------------------------|
a|------------------------------------------------------------------|
F|-161616161616161616161616161616161717171717171717-----------------|
C|-------------------------------------------------1616161614141414-|
G|------------------------------------------------------------------|
D|------------------------------------------------------------------|
A|------------------------------------------------------------------|

(guitar2)
d|--------------------------|
a|--------------------------|
F|--------------------------|
C|--------------------------|
G|--------------------------|
D|-7~~~~(7)/10---5~~~~(5)/8-|
A|-5~~~~(5)/ 8---3~~~~(3)/6-|

(guitar3)
d|------------------------------------------|
a|------------------------------------------|
F|-1717171717171717171919191915151515151515-|
C|------------------------------------------|
G|------------------------------------------|
D|------------------------------------------|
A|------------------------------------------|

Chorus:
(guitar1)
d|-----------------------------------|
a|-----------------------------------|
F|-----------------------------------|
C|-----------------------------------|
G|-2~--9---9--2-9-8--2~-9---9--2-9-8-|
D|-0~--7-0-7--0-7-6--0~-7-0-7--0-7-6-|
A|-----------------------------------|

d|-----------------------------------|
a|-----------------------------------|
F|-----------------------------------|
C|-----------------------------------|
G|-2~--9---9--2-9-8--2~-9---9--2-9-8-|
D|-0~--7-0-7--0-7-6--0~-7-0-7--0-7-6-|
A|-----------------------------------|

d|----------------------|
a|----------------------|
F|----------------------|
C|-5~~~-7~~~-9~~~-12~~~-|
G|-5~~~-7~~~-9~~~-12~~~-|
D|-3~~~-5~~~-7~~~-10~~~-|
A|----------------------|

d|-----------------------------------|
a|-----------------------------------|
F|-----------------------------------|
C|-----------------------------------|
G|-2~--9---9--2-9-8--2~-9---9--2-9-8-|
D|-0~--7-0-7--0-7-6--0~-7-0-7--0-7-6-|
A|-----------------------------------|

d|--------------------------------|
a|--------------------------------|
F|--------------------------------|
C|-5~~~-7~~~-9~~~-12~~~-2~~~~~~~~-|
G|-5~~~-7~~~-9~~~-12~~~-2~~~~~~~~-|
D|-3~~~-5~~~-7~~~-10~~~-0~~~~~~~~-|
A|--------------------------------|

(guitar2)
d|-----------------------------------|
a|-----------------------------------|
F|-----------------------------------|
C|-----------------------------------|
G|-2~--9---9--2-9-8--2~-9---9--2-9-8-|
D|-0~--7-0-7--0-7-6--0~-7-0-7--0-7-6-|
A|-----------------------------------|

d|-----------------------------------|
a|-----------------------------------|
F|-----------------------------------|
C|-----------------------------------|
G|-2~--9---9--2-9-8--2~-9---9--2-9-8-|
D|-0~--7-0-7--0-7-6--0~-7-0-7--0-7-6-|
A|-----------------------------------|

d|----------------------------------|
a|----------------------------------|
F|-12121212141414141616161619192121-|
C|-xxxxxxxxxxxxxxxxxxxxxxxxxxxxxxxx-|
G|-10101010121212121414141417171919-|
D|----------------------------------|
A|----------------------------------|

d|-----------------------------------|
a|-----------------------------------|
F|-----------------------------------|
C|-----------------------------------|
G|-2~--9---9--2-9-8--2~-9---9--2-9-8-|
D|-0~--7-0-7--0-7-6--0~-7-0-7--0-7-6-|
A|-----------------------------------|


d|----------------------------------|
a|----------------------------------|
F|-12121212141414141616161619192121-|
C|-xxxxxxxxxxxxxxxxxxxxxxxxxxxxxxxx-|
G|-10101010121212121414141417171919-|
D|----------------------------------|
A|----------------------------------|

d|--------------------|
a|--------------------|
F|-161616161616161616-|
C|-xxxxxxxxxxxxxxxxxx-|
G|-141414141414141414-|
D|--------------------|
A|--------------------|

Verse:
(guitar1)
d|---------------------------------------|
a|---------------------------------------|
F|-16~-16~-17~-14~---16~-16~-17~---------|
C|-------------------------------16~-14~-|
G|---------------------------------------|
D|---------------------------------------|
A|---------------------------------------|

d|------------------------------------------------------------------|
a|------------------------------------------------------------------|
F|-1616161616161616161616161616161617171717171717171414141414141414-|
C|------------------------------------------------------------------|
G|------------------------------------------------------------------|
D|------------------------------------------------------------------|
A|------------------------------------------------------------------|

d|------------------------------------------------------------------|
a|------------------------------------------------------------------|
F|-161616161616161616161616161616161717171717171717-----------------|
C|-------------------------------------------------1616161614141414-|
G|------------------------------------------------------------------|
D|------------------------------------------------------------------|
A|------------------------------------------------------------------|

(guitar2 with wah wah)
d|---------------------|
a|------20~~------18~~-|
F|-21~~------19~~------|
C|---------------------|
G|---------------------|
D|---------------------|
A|---------------------|

Chorus:
(guitar1)
d|-----------------------------------|
a|-----------------------------------|
F|-----------------------------------|
C|-----------------------------------|
G|-2~--9---9--2-9-8--2~-9---9--2-9-8-|
D|-0~--7-0-7--0-7-6--0~-7-0-7--0-7-6-|
A|-----------------------------------|

d|-----------------------------------|
a|-----------------------------------|
F|-----------------------------------|
C|-----------------------------------|
G|-2~--9---9--2-9-8--2~-9---9--2-9-8-|
D|-0~--7-0-7--0-7-6--0~-7-0-7--0-7-6-|
A|-----------------------------------|

d|----------------------|
a|----------------------|
F|----------------------|
C|-5~~~-7~~~-9~~~-12~~~-|
G|-5~~~-7~~~-9~~~-12~~~-|
D|-3~~~-5~~~-7~~~-10~~~-|
A|----------------------|

d|-----------------------------------|
a|-----------------------------------|
F|-----------------------------------|
C|-----------------------------------|
G|-2~--9---9--2-9-8--2~-9---9--2-9-8-|
D|-0~--7-0-7--0-7-6--0~-7-0-7--0-7-6-|
A|-----------------------------------|

d|----------------------|
a|----------------------|
F|----------------------|
C|-5~~~-7~~~-9~~~-12~~~-|
G|-5~~~-7~~~-9~~~-12~~~-|
D|-3~~~-5~~~-7~~~-10~~~-|
A|----------------------|

d|----------------------|
a|----------------------|
F|----------------------|
C|-5~~~-7~~~-9~~~-12~~~-|
G|-5~~~-7~~~-9~~~-12~~~-|
D|-3~~~-5~~~-7~~~-10~~~-|
A|----------------------|

d|----------------------|
a|----------------------|
F|----------------------|
C|-5~~~-7~~~-9~~~-12~~~-|
G|-5~~~-7~~~-9~~~-12~~~-|
D|-3~~~-5~~~-7~~~-10~~~-|
A|----------------------|

d|--------------------------------|
a|--------------------------------|
F|--------------------------------|
C|-5~~~-7~~~-9~~~-12~~~-2~~~~~~~~-|
G|-5~~~-7~~~-9~~~-12~~~-2~~~~~~~~-|
D|-3~~~-5~~~-7~~~-10~~~-0~~~~~~~~-|
A|--------------------------------|

(guitar2)
d|-----------------------------------|
a|-----------------------------------|
F|-----------------------------------|
C|-----------------------------------|
G|-2~--9---9--2-9-8--2~-9---9--2-9-8-|
D|-0~--7-0-7--0-7-6--0~-7-0-7--0-7-6-|
A|-----------------------------------|

d|-----------------------------------|
a|-----------------------------------|
F|-----------------------------------|
C|-----------------------------------|
G|-2~--9---9--2-9-8--2~-9---9--2-9-8-|
D|-0~--7-0-7--0-7-6--0~-7-0-7--0-7-6-|
A|-----------------------------------|

d|----------------------------------|
a|----------------------------------|
F|-12121212141414141616161619192121-|
C|-xxxxxxxxxxxxxxxxxxxxxxxxxxxxxxxx-|
G|-10101010121212121414141417171919-|
D|----------------------------------|
A|----------------------------------|

d|-----------------------------------|
a|-----------------------------------|
F|-----------------------------------|
C|-----------------------------------|
G|-2~--9---9--2-9-8--2~-9---9--2-9-8-|
D|-0~--7-0-7--0-7-6--0~-7-0-7--0-7-6-|
A|-----------------------------------|

d|----------------------------------|
a|----------------------------------|
F|-12121212141414141616161619192121-|
C|-xxxxxxxxxxxxxxxxxxxxxxxxxxxxxxxx-|
G|-10101010121212121414141417171919-|
D|----------------------------------|
A|----------------------------------|

d|----------------------------------|
a|----------------------------------|
F|-12121212141414141616161619192121-|
C|-xxxxxxxxxxxxxxxxxxxxxxxxxxxxxxxx-|
G|-10101010121212121414141417171919-|
D|----------------------------------|
A|----------------------------------|

d|----------------------------------|
a|----------------------------------|
F|-12121212141414141616161619191919-|
C|-xxxxxxxxxxxxxxxxxxxxxxxxxxxxxxxx-|
G|-10101010121212121414141417171717-|
D|----------------------------------|
A|----------------------------------|

d|----------------------------------|
a|----------------------------------|
F|-24242424242424242323232321212121-|
C|-xxxxxxxxxxxxxxxxxxxxxxxxxxxxxxxx-|
G|-22222222222222222121212119191919-|
D|----------------------------------|
A|----------------------------------|

Bridge1:
(guitar1)
d|-------------------------------------------------|
a|-------------------------------------------------|
F|-------------------------------------------------|
C|-------------------------------------------------|
G|-------------------------------------------------|
D|-------------------------------------------------|
A|-4-5-4-3-4-3-2-3-2-1-2-1-6-7-6-5-6-5-4-5-4-3-4-3-|

d|-------------------------------------------------|
a|-------------------------------------------------|
F|-------------------------------------------------|
C|-------------------------------------------------|
G|-------------------------------------------3~~~~-|
D|-------------------------------------------3~~~~-|
A|-8-9-8-7-8-7-6-7-6-5-6-5-4-5-4-3-4-3-2-3-2-1~~~~-|

(guitar2)
d|-------------------------------------------------|
a|-------------------------------------------------|
F|-------------------------------------------------|
C|-------------------------------------------------|
G|-------------------------------------------------|
D|-6-7-6-5-6-5-4-5-4-3-4-3-8-9-8-7-8-7-6-7-6-5-6-5-|
A|-4-5-4-3-4-3-2-3-2-1-2-1-6-7-6-5-6-5-4-5-4-3-4-3-|

d|-----------------------------------------------------|
a|-----------------------------------------------------|
F|-----------------------------------------------------|
C|-----------------------------------------------------|
G|-----------------------------------------------3~~~~-|
D|-10-11-10-9-10-9-8-9-8-7-8-7-6-7-6-5-6-5-4-5-4-3~~~~-|
A|- 8- 9- 8-7- 8-7-6-7-6-5-6-5-4-5-4-3-4-3-2-3-2-1~~~~-|

Bridge2:
(guitar1)
d|-------------------------------------------------|
a|-------------------------------------------------|
F|-------------------------------------------------|
C|-------------------------------------------------|
G|-------------------------------------------------|
D|-------------------------------------------------|
A|-4-5-4-3-4-3-2-3-2-1-2-1-6-7-6-5-6-5-4-5-4-3-4-3-|

d|-------------------------------------------------|
a|-------------------------------------------------|
F|-------------------------------------------------|
C|-------------------------------------------------|
G|-------------------------------------------3~~~~-|
D|-------------------------------------------3~~~~-|
A|-8-9-8-7-8-7-6-7-6-5-6-5-4-5-4-3-4-3-2-3-2-1~~~~-|

(guitar2)
d|-------------------------------------------------|
a|-------------------------------------------------|
F|-------------------------------------------------|
C|-------------------------------------------------|
G|-6-7-6-5-6-5-4-5-4-3-4-3-8-9-8-7-8-7-6-7-6-5-6-5-|
D|-6-7-6-5-6-5-4-5-4-3-4-3-8-9-8-7-8-7-6-7-6-5-6-5-|
A|-4-5-4-3-4-3-2-3-2-1-2-1-6-7-6-5-6-5-4-5-4-3-4-3-|

d|-----------------------------------------------------|
a|-----------------------------------------------------|
F|-----------------------------------------------------|
C|-----------------------------------------------------|
G|-10-11-10-9-10-9-8-9-8-7-8-7-6-7-6-5-6-5-4-5-4-3~~~~-|
D|-10-11-10-9-10-9-8-9-8-7-8-7-6-7-6-5-6-5-4-5-4-3~~~~-|
A|- 8- 9- 8-7- 8-7-6-7-6-5-6-5-4-5-4-3-4-3-2-3-2-1~~~~-|

Bridge3:
d|------------------------------------------|
a|------------------------------------------|
F|------------------------------------------|
C|------------------------------------------|
G|-14141414-14999-9999--14141414-14999-9999-|
D|-12121212-12777-7777--12121212-12777-7777-|
A|----------------0000-----------------0000-|

Fill1:(natural harmonics)
d|-------|
a|----7*-|
F|-5*----|
C|-------|
G|-------|
D|-------|
A|-------|

Chorus:
(guitar1)
d|-----------------------------------|
a|-----------------------------------|
F|-----------------------------------|
C|-----------------------------------|
G|-2~--9---9--2-9-8--2~-9---9--2-9-8-|
D|-0~--7-0-7--0-7-6--0~-7-0-7--0-7-6-|
A|-----------------------------------|

d|-----------------------------------|
a|-----------------------------------|
F|-----------------------------------|
C|-----------------------------------|
G|-2~--9---9--2-9-8--2~-9---9--2-9-8-|
D|-0~--7-0-7--0-7-6--0~-7-0-7--0-7-6-|
A|-----------------------------------|

d|----------------------|
a|----------------------|
F|----------------------|
C|-5~~~-7~~~-9~~~-12~~~-|
G|-5~~~-7~~~-9~~~-12~~~-|
D|-3~~~-5~~~-7~~~-10~~~-|
A|----------------------|

d|-----------------------------------|
a|-----------------------------------|
F|-----------------------------------|
C|-----------------------------------|
G|-2~--9---9--2-9-8--2~-9---9--2-9-8-|
D|-0~--7-0-7--0-7-6--0~-7-0-7--0-7-6-|
A|-----------------------------------|

d|--------------------------------|
a|--------------------------------|
F|--------------------------------|
C|-5~~~-7~~~-9~~~-12~~~-2~~~~~~~~-|
G|-5~~~-7~~~-9~~~-12~~~-2~~~~~~~~-|
D|-3~~~-5~~~-7~~~-10~~~-0~~~~~~~~-|
A|--------------------------------|

(guitar2)
d|-----------------------------------|
a|-----------------------------------|
F|-----------------------------------|
C|-----------------------------------|
G|-2~--9---9--2-9-8--2~-9---9--2-9-8-|
D|-0~--7-0-7--0-7-6--0~-7-0-7--0-7-6-|
A|-----------------------------------|

d|-----------------------------------|
a|-----------------------------------|
F|-----------------------------------|
C|-----------------------------------|
G|-2~--9---9--2-9-8--2~-9---9--2-9-8-|
D|-0~--7-0-7--0-7-6--0~-7-0-7--0-7-6-|
A|-----------------------------------|

d|----------------------------------|
a|----------------------------------|
F|-12121212141414141616161619192121-|
C|-xxxxxxxxxxxxxxxxxxxxxxxxxxxxxxxx-|
G|-10101010121212121414141417171919-|
D|----------------------------------|
A|----------------------------------|

d|-----------------------------------|
a|-----------------------------------|
F|-----------------------------------|
C|-----------------------------------|
G|-2~--9---9--2-9-8--2~-9---9--2-9-8-|
D|-0~--7-0-7--0-7-6--0~-7-0-7--0-7-6-|
A|-----------------------------------|


d|----------------------------------|
a|----------------------------------|
F|-12121212141414141616161619192121-|
C|-xxxxxxxxxxxxxxxxxxxxxxxxxxxxxxxx-|
G|-10101010121212121414141417171919-|
D|----------------------------------|
A|----------------------------------|

d|--------------------|
a|--------------------|
F|-161616161616161616-|
C|-xxxxxxxxxxxxxxxxxx-|
G|-141414141414141414-|
D|--------------------|
A|--------------------|

Outro:
(guitar1)
d|---------------------------|
a|---------------------------|
F|---------------------------|
C|---------------------------|
G|---------------------------|
D|-//121212-//12121212-/1212-|
A|---------------------------|

(guitar2)
d|---------------------------------|
a|---------------------------------|
F|---------------------------------|
C|---------------------------------|
G|-7-6-7--9-7-9--10-9-10---12-10-9-|
D|---------------------------------|
A|---------------------------------|

(guitar3)
d|-------------------------------------|
a|-------------------------------------|
F|-9-8-9--11-9-11--12-11-12---14-12-11-|
C|-------------------------------------|
G|-------------------------------------|
D|-------------------------------------|
A|-------------------------------------|

(guitar4)
d|-----------------------------------|
a|-----------------------------------|
F|-----------------------------------|
C|-----------------------------------|
G|-2-2--2---2-2--2---2-2--2---2-2--2-|
D|-0-0--0---0-0--0---0-0--0---0-0--0-|
A|-----------------------------------|

(synth)
d|---------------------------|
a|---------------------------|
F|-16~~-14~~-11~~~--12~11~9~-|
C|-xx---xx---xx-----xx-xx-x--|
G|-14~--12~-- 9~~~--10~ 9~7~-|
D|---------------------------|
A|---------------------------|

(guitar5)
d|---------------------------------|
a|---------------------------------|
F|---------------------------------|
C|---------------------------------|
G|-7-6-7--9-7-9--10-9-10---12-10-9-|
D|-7-6-7--9-7-9--10-9-10---12-10-9-|
A|-5-4-5--7-5-7-- 8-7- 8---10- 8-7-|

Fill2:
(guitar)
d|----|
a|----|
F|----|
C|----|
G|-7~-|
D|-7~-|
A|-5~-|

(synth)
d|-----------------|
a|-----------------|
F|-16~~-14~~-11~~~-|
C|-xx---xx---xx----|
G|-14~--12~-- 9~~~-|
D|-----------------|
A|-----------------|
Добавлено: 16.03.2012
Другие материалы по этой песне:

Страница создана 16.03.2012
http://primanota.ru/korn/ever-be-chords.htm
Привет, Гость.
Предлагаем пройти революционный курс по гитаре.
Подарок от PrimaNota.Ru, забирай!