PrimaNota.ru - самый крупный в мире бесплатный архив песенных текстов, аккордов, табулатур и нот


Korn - Faget - аккорды и текст, таба, бас-таба, видео

Регистрация Запомнить меня
Войти через:  Facebook Google Twitter Vk Yandex Mail.ru

Korn - Faget - аккорды и текст, таба, бас-таба, видео

Печатать
Просмотров: 409
Авторы: Korn

Faget
Korn
TUNING: A, D, G, C, F, A, D (low to high)

Intro (Head):
[D--------------------------
A--------------------------
F-----------------------11-
C-----------------------10-
G------------------------9-
D-7--7-7-7--7-7--7-7-7---8-
A-0--0-0-0--0-0--0-0-0-----]

Intro (Munky):
[D-----------
A-----------
F-----------
C-----------
G-7-8-7-5-
D-7-8-5-3-
A-----------]
Then just loop the two riffs.

Verse (Head):
[D-------------------------------
A-------------------------------
F-------------------------------
C-------------------------------
G-------------------------------
D-7--7-7-7--7-7--7-7-7--8-8-8-8-
A-------------------------------]

Verse (Munky):
[D-----------7----------------7-----------
A-13-11-4-------6--13-11-4-------6---5-2-
F---------7---4------------7---4---4-----
C----------------------------------------
G----------------------------------------
D----------------------------------------
A----------------------------------------]
The chorus is Head and Munky's Intros looped, again.
And when he yells "faggot" just play Head's Intro.
"I'm just a pretty boy...fucking like it":
[D------------------------------
A------------------------------
F------------------------------
C------------------------------
G------------------------------
D-7-7-7-7-7--7-7-7-7-7-8-7-8-7-
A------------------------------]
Mute this, a lot.

Bridge:
[D--------------------------------
A--------------------------------
F--------------------------------
C--------------------------------
G--------------------9-10-9-10-9-
D-7-7-7-7-7--7-7-7-7-7--8-7--8-7-
A-0-0-0-0-0--0-0-0-0-------------]
Pretty boy fuck a girl/fucked world Part (Head):
[D--------------------------------
A-12-13-12-15-13-12-12-8-12-13-8-
F--------------------------------
C--------------------------------
G--------------------------------
D--------------------------------
A--------------------------------]
I know for a fact that this isn't what he plays, but it sounds good. I have
no idea what Munky plays.
Then play Head's verse riff for the "all my life" part.

-

Text:		Here I am different in this normal world
Why did you tease me make me feel upset
Fucking stereotypes feeding their heads
I am ugly, please just go away
I can see inside you fine
This blessing in disguise
Why do you treat me this way
Make the hate stay
As I walk I can never seem to escape
All the laughing, all the pain
If you were me, what would you do?
Nothing prob'ly, you'd just throw me away
CHORUS
FAGGOT FAGGOT FAGGOT
Here I am different in this normal world
Why did you tease me make me feel upset
Fucking stereotypes feeding their heads
I am ugly, please just go away
CHORUS
FAGGOT
Pussy
I'm just a pretty boy, whatever you call it
You wouldn't know a real man if you saw it
It keeps going on day after day some
You FAKE and you .... don't want none
I'm sick and tired of people treating me this way every day
Who gives a fuck, right? Now I've got something to say
To all the people that think that I'm STRANGE
That I should be outta here locked up in a CAGE
You don't know what the hell is up now anyway
You've got this pretty boy feeling like I'm enslaved
To a world that never 'preciated SHIT
YOU CAN SUCK MY DICK AND FUCKIN' LIKE IT

?????

I'm just a pretty boy; I'm not 'sposed to fuck a girl
I'm just a pretty boy living in this fucked up world
All my life, who am I? All my life, who am I?
All my life, who am I? ALL MY LIFE, WHO AM I?
I'm just a faggot
I'm just a faggot
I'm just a faggot
I'm a faggot
I'm not a faggot            (what am i?)
I'm not a faggot            (what am i?)
I'm not a faggot            (what am i?)
You motherfucking queers
Добавлено: 17.11.2013
Другие материалы по этой песне:

Страница создана 21.02.2012
http://primanota.ru/korn/faget-chords.htm
Привет, Гость.
Предлагаем пройти революционный курс по гитаре.
Подарок от PrimaNota.Ru, забирай!