PrimaNota.ru - самый крупный в мире бесплатный архив песенных текстов, аккордов, табулатур и нот


Korn - Fake - аккорды и текст, таба, бас-таба, видео

Регистрация Запомнить меня
Войти через:  Facebook Google Twitter Vk Yandex Mail.ru

Korn - Fake - аккорды и текст, таба, бас-таба, видео

Печатать
Просмотров: 223
Авторы: Korn

Fake
Korn
Riff 1  			    Fill 1
[G---------------------------------------
D----2-3/4-2-3-3-2-3-3-2---------2-3----
A--0-0-1/2-0-1-1-0-1-1-0--0----0-0-1/2--]
Rif2a          Fill2    Riff2b    ..........   ..last..
[d------------------------------------------------
a------------------------------------------------
F-------------------11--9----11--9---------11----
C----------------------------------9----------9--
A------------------------------------------------]
Riff 3
[F-------------------------------------------
C-------- ^: Bend up half a step -----------
G-------------------------------------------
D-----13----14----13^------13----14---------
A--00----00----00-------00----00----00-12--]
Fill 3    Riff 4
[F---------------------------------]
[C--15-----------------------------] 2nd time note is by the bass
[G--14----------------------14-----] --open A
[D--13-------------------12----12--
A--12----12----------13-----------]
Volume swells during Riff 4
[d---------------------------]
[a---------------------------] Played during "...Be yourself let you 
[F--
Добавлено: 04.02.2014
Другие материалы по этой песне:

Страница создана 07.03.2012
http://primanota.ru/korn/fake-chords.htm
Привет, Гость.
Предлагаем пройти революционный курс по гитаре.
Подарок от PrimaNota.Ru, забирай!