PrimaNota.ru - самый крупный в мире бесплатный архив песенных текстов, аккордов, табулатур и нот


Korn - For No One - текст песни, таба, видео

Регистрация Запомнить меня
Войти через:  Facebook Google Twitter Vk Yandex Mail.ru

Korn - For No One - текст песни, таба, видео

Печатать
Просмотров: 183
Авторы: The Matrix, Korn

KoRn - For No One - See You On The Other Side

Tabbed by Elvisz (elvisz@kornkids.com)
                 (elvisz84@yahoo.com)

Tuning : 7 String Tuned Low to High (A D G C F a d)

Vocal: Jonathan Houseman Davis 'Hiv'
Guitar: James Randal Shaffer 'Munky'
Bass: Reginald Arvizu 'Fieldy'
Drums: David Silveria

Intro:
d|------------------------|
a|------------------------|
F|------------------------|
C|------------------------|
G|------------------------|
D|------------------------|
A|-5r3--5r3h5-3h5-3h5-5h6-|

Pre-Verse:
d|------------------------|
a|------------------------|
F|------------------------|
C|------------------------|
G|------------------------|
D|------------------------|
A|-5r3--5r3h5-3h5-3h5-5h6-|

d|------------------------|
a|------------------------|
F|------------------------|
C|------------------------|     (2 guitar)
G|-7r5--7r5h7-5h7-5h7-7h8-|
D|------------------------|
A|------------------------|

Verse:
d|----------------------------|----------------------------|
a|----------------------------|----------------------------|
F|----------------------------|----------------------------|
C|----------------------------|----------------------------|
G|----------------------------|----------------------------|
D|-2~~-2-2~~-2-2~~-2----------|-22---2-2--2-2~~-2----------|
A|-0~~-0-0~~-0-0~~-0-3203202~-|-00~~-0-0~-0-0~~-0-3203202~-|
       .     .     . .......    .    .    .     . .......    .palm mute

Pre-Chorus:
d|-------------------------------|
a|-------------------------------|
F|-------------------------------|
C|-------------------------------|
G|--------------5~~-7~~-9~~-10~~-|
D|-22~~-2-2--2--5~~-7~~-9~~-10~~-|
A|-00~~-0-0~-0--3~~-5~~-7~~- 8~~-|
   .    .    .                     .palm mute

Verse:
d|----------------------------|----------------------------|
a|----------------------------|----------------------------|
F|----------------------------|----------------------------|
C|----------------------------|----------------------------|
G|----------------------------|----------------------------|
D|-2~~-2-2~~-2-2~~-2----------|-22---2-2--2-2~~-2----------|
A|-0~~-0-0~~-0-0~~-0-3203202~-|-00~~-0-0~-0-0~~-0-3203202~-|
       .     .     . .......    .    .    .     . .......    .palm mute

Pre-Chorus:
d|-------------------------------|
a|-------------------------------|
F|-------------------------------|
C|-------------------------------|
G|--------------5~~-7~~-9~~-10~~-|
D|-22~~-2-2--2--5~~-7~~-9~~-10~~-|
A|-00~~-0-0~-0--3~~-5~~-7~~- 8~~-|
   .    .    .                     .palm mute
 
Chorus:
d|------------------------|
a|------------------------|
F|------------------------|
C|------------------------|
G|------------------------|
D|------------------------|
A|-5r3--5r3h5-3h5-3h5-5h6-|

d|------------------------|
a|------------------------|
F|------------------------|
C|------------------------|     (2 guitar)
G|-7r5--7r5h7-5h7-5h7-7h8-|
D|------------------------|
A|------------------------|

Verse:
d|----------------------------|----------------------------|
a|----------------------------|----------------------------|
F|----------------------------|----------------------------|
C|----------------------------|----------------------------|
G|----------------------------|----------------------------|
D|-2~~-2-2~~-2-2~~-2----------|-22---2-2--2-2~~-2----------|
A|-0~~-0-0~~-0-0~~-0-3203202~-|-00~~-0-0~-0-0~~-0-3203202~-|
       .     .     . .......    .    .    .     . .......    .palm mute

Pre-Chorus:
d|-------------------------------|
a|-------------------------------|
F|-------------------------------|
C|-------------------------------|
G|--------------5~~-7~~-9~~-10~~-|
D|-22~~-2-2--2--5~~-7~~-9~~-10~~-|
A|-00~~-0-0~-0--3~~-5~~-7~~- 8~~-|
   .    .    .                     .palm mute

Verse:
d|----------------------------|----------------------------|
a|----------------------------|----------------------------|
F|----------------------------|----------------------------|
C|----------------------------|----------------------------|
G|----------------------------|----------------------------|
D|-2~~-2-2~~-2-2~~-2----------|-22---2-2--2-2~~-2----------|
A|-0~~-0-0~~-0-0~~-0-3203202~-|-00~~-0-0~-0-0~~-0-3203202~-|
       .     .     . .......    .    .    .     . .......    .palm mute

Pre-Chorus:
d|-------------------------------|
a|-------------------------------|
F|-------------------------------|
C|-------------------------------|
G|--------------5~~-7~~-9~~-10~~-|
D|-22~~-2-2--2--5~~-7~~-9~~-10~~-|
A|-00~~-0-0~-0--3~~-5~~-7~~- 8~~-|
   .    .    .                     .palm mute

Chorus:
d|------------------------|
a|------------------------|
F|------------------------|
C|------------------------|
G|------------------------|
D|------------------------|
A|-5r3--5r3h5-3h5-3h5-5h6-|

d|------------------------|
a|------------------------|
F|------------------------|
C|------------------------|     (2 guitar)
G|-7r5--7r5h7-5h7-5h7-7h8-|
D|------------------------|
A|------------------------|

Bridge1: (same as chorus)
d|------------------------|
a|------------------------|
F|------------------------|
C|------------------------|
G|------------------------|
D|------------------------|
A|-5r3--5r3h5-3h5-3h5-5h6-|

d|------------------------|
a|------------------------|
F|------------------------|
C|------------------------|     (2 guitar)
G|-7r5--7r5h7-5h7-5h7-7h8-|
D|------------------------|
A|------------------------|

Bridge2:
d|--------------------------------------------------------------------|
a|--------------------------------------------------------------------|
F|--------------------------------------------------------------------|
C|-----------7~---------------------7~--------------------------------|
G|--------8~-5~-7/8\7------------8~-5~-7/8\7----10~~~-7/8\7-----7/8\7-|
D|-7~-10~-6~----5/6\5-10~-7~-10~-6~----5/6\5-10- 8~~~-5/6\5-----5/6\5-|
A|-5~- 8~------------- 8~-5~- 8~------------- 8-------------5-5-------| 
                                                            . .         .palm mute
Bridge3:
d|------------------------------|
a|-15---------15----------------|
F|-17^--------17^---------------|
C|------------------------------|
G|------------------------------|
D|------------------------------|
A|------------------------------| 

d|------------------------------|
a|------------------------------|
F|------------------------------|
C|-------------------------12---|
G|----7/9~8~-----8~7~------xx---|
D|----6/7~6~-----6~5~--/10~1010-|
A|---------------------/ 8~-- 8-| 

Chorus:
d|------------------------|
a|------------------------|
F|------------------------|
C|------------------------|
G|------------------------|
D|------------------------|
A|-5r3--5r3h5-3h5-3h5-5h6-|

d|------------------------|
a|------------------------|
F|------------------------|
C|------------------------|     (2 guitar)
G|-7r5--7r5h7-5h7-5h7-7h8-|
D|------------------------|
A|------------------------|

Outro:
d|-------|-----|
a|-------|-----|
F|-------|-----|
C|-------|-----|
G|-------|-----|
D|-3-4-5-|-3-4-|
A|-1-2-3-|-1-2-| 
Добавлено: 12.07.2012
Другие материалы по этой песне:

Страница создана 25.02.2012
http://primanota.ru/korn/for-no-one-chords.htm
Привет, Гость.
Предлагаем пройти революционный курс по гитаре.
Подарок от PrimaNota.Ru, забирай!