PrimaNota.ru - самый крупный в мире бесплатный архив песенных текстов, аккордов, табулатур и нот


Korn - Evolution - текст песни, таба, видео

Регистрация Запомнить меня
Войти через:  Facebook Google Twitter Vk Yandex Mail.ru

Korn - Evolution - текст песни, таба, видео

Печатать
Просмотров: 469
Авторы: Zac Baird, The Matrix, Korn

KoRn - Evolution - Untitled

Tabbed by Elvisz (elvisz84@yahoo.com)
Tuning : 7 String Tuned Low to High (A D G C F a d)

Vocal: Jonathan Houseman Davis 'Hiv'
Guitar: James Shaffer "Munky"
Bass: Reginald Arvizu 'Fieldy'
Drums: Terry Bozzio

Intro:(synth)
d|------------------------------------------|
a|------------------------------------------|
F|-21~--19~--------22~--21~--2119~-~~~------|
C|-----------21~------------------------21~>|
G|------------------------------------------|
D|------------------------------------------|
A|------------------------------------------|

(guitar)
d|----------|
a|----------|
F|----------|
C|----------|
G|-7x-7x-8x-|
D|-7x-7x-8x-|
A|-5x-5X-6x-|

Pre-Chorus:
d|---------------------------------|
a|---------------------------------|
F|---------------------------------|
C|---------------------------------|
G|-877x---77-777-777-888-88-888-88-|
D|-877x---77-777-777-888-88-888-88-|
A|-655x---55-555-555-666-66-666-66-|
          .. ..  ..  ..  .. ..  ..  .palm mute

Fill1:
d|-------------------------------------------------|
a|-------------------------------------------------|
F|-------------------------------------------------|
C|-------------------------------------------------|
G|-------10-------10-------------10-------10-------|
D|----12-------12-------12----12-------12-------12-|
A|-11-------11-------11----10-------10-------10----|
   .. ..    .. ..    .. .. .. ..    .. ..    .. ..  .palm mute

d|-------------------------------------------|
a|-------------------------------------------|
F|-------------------------------------------|
C|-------------------------------------------|
G|------10------10-----------10------10------|
D|---11------11------11---10------10------10-|
A|-9-------9-------9----8-------8-------8----|
   . ..    . ..    . .. . ..    . ..    . ..  .palm mute

Chorus:
d|-------------------------------------------------------------------------|
a|-------------------------------------------------------------------------|
F|-------------------------------------------------------------------------|
C|-------------------------------------------------------------------------|    (guitar1)
G|-77777777--575-1010101010101010-575-1212121212121212-5~~~~-777777777-575-|
D|-77777777--575-1010101010101010-575-1212121212121212-5~~~~-777777777-575-|
A|-55555555--353- 8 8 8 8 8 8 8 8-353-1010101010101010-3~~~~-555555555-353-|

d|-------------------------------------------------------------------------|
a|-------------------------------------------------------------------------|
F|-------------------------------------------------------------------------|
C|-------------------------------------------------------------------------|    (guitar2)
G|-7910-7910-710-575-7910-7910-710-575-7910-7910-710-5~~~7910-7910-710-575-|
D|---------------575---------------575---------------5~~~--------------575-|
A|---------------353---------------575---------------5~~~--------------575-|

d|--------------------------------------------------|
a|--------------------------------------------------|
F|--------------------------------------------------|
C|-212121212121212119191919191919191717171717171717-|   (synth)
G|-xxxxxxxxxxxxxxxxxxxxxxxxxxxxxxxxxxxxxxxxxxxxxxxx-|
D|-191919191919191917171717171717171515151515151515-|
A|--------------------------------------------------|

Fill2:
d|------------------------------------------|
a|------------------------------------------|
F|-21~~-19~~--------------------------------|
C|-----------21~~-22~~-19~\\\\\\\\\\\\\\\\\-|
G|------------------------------------------|
D|------------------------------------------|
A|------------------------------------------|

Verse:(synth)
d|------------------------------------------|
a|------------------------------------------|
F|-21~--19~--------22~--21~--2119~-~~~------|
C|-----------21~------------------------21~>|
G|------------------------------------------|
D|------------------------------------------|
A|------------------------------------------|

(guitar)
d|----------|
a|----------|
F|----------|
C|----------|
G|-7x-7x-8x-|
D|-7x-7x-8x-|
A|-5x-5X-6x-|

Pre-Chorus:
d|---------------------------------|
a|---------------------------------|
F|---------------------------------|
C|---------------------------------|
G|-877x---77-777-777-888-88-888-88-|
D|-877x---77-777-777-888-88-888-88-|
A|-655x---55-555-555-666-66-666-66-|
          .. ..  ..  ..  .. ..  ..  .palm mute

Fill1:
d|-------------------------------------------------|
a|-------------------------------------------------|
F|-------------------------------------------------|
C|-------------------------------------------------|
G|-------10-------10-------------10-------10-------|
D|----12-------12-------12----12-------12-------12-|
A|-11-------11-------11----10-------10-------10----|
   .. ..    .. ..    .. .. .. ..    .. ..    .. ..  .palm mute

d|-------------------------------------------|
a|-------------------------------------------|
F|-------------------------------------------|
C|-------------------------------------------|
G|------10------10-----------10------10------|
D|---11------11------11---10------10------10-|
A|-9-------9-------9----8-------8-------8----|
   . ..    . ..    . .. . ..    . ..    . ..  .palm mute

Chorus:
d|-------------------------------------------------------------------------|
a|-------------------------------------------------------------------------|
F|-------------------------------------------------------------------------|
C|-------------------------------------------------------------------------|    (guitar1)
G|-77777777--575-1010101010101010-575-1212121212121212-5~~~~-777777777-575-|
D|-77777777--575-1010101010101010-575-1212121212121212-5~~~~-777777777-575-|
A|-55555555--353- 8 8 8 8 8 8 8 8-353-1010101010101010-3~~~~-555555555-353-|

d|-------------------------------------------------------------------------|
a|-------------------------------------------------------------------------|
F|-------------------------------------------------------------------------|
C|-------------------------------------------------------------------------|    (guitar2)
G|-7910-7910-710-575-7910-7910-710-575-7910-7910-710-5~~~7910-7910-710-575-|
D|---------------575---------------575---------------5~~~--------------575-|
A|---------------353---------------575---------------5~~~--------------575-|

d|--------------------------------------------------|
a|--------------------------------------------------|
F|--------------------------------------------------|
C|-212121212121212119191919191919191717171717171717-|   (synth)
G|-xxxxxxxxxxxxxxxxxxxxxxxxxxxxxxxxxxxxxxxxxxxxxxxx-|
D|-191919191919191917171717171717171515151515151515-|
A|--------------------------------------------------|

Bridge1:
d|-------------------------------------------------------------------------|
a|-------------------------------------------------------------------------|
F|-------------------------------------------------------------------------|
C|-1414141513-xxxxxxxx-1414141513-xxxxxxxx-1919191916-xxxxxxxxx-2121212116-|
G|-xxxxxxxxxx-xxxxxxxx-xxxxxxxxxx-xxxxxxxx-xxxxxxxxxx-xxxxxxxxx-xxxxxxxxxx-|
D|-1212121311-xxxxxxxx-1212121311-xxxxxxxx-1717171714-xxxxxxxxx-1919191914-|
A|-------------------------------------------------------------------------|

Bridge2:
d|-----------------------------------------------|
a|-----------------------------------------------|
F|-----------------------------------------------|
C|-----------------------------------------------|
G|-----------------------------------------------|
D|-----------------------------------------------|
A|-4/55-4/77---4/55-4/77---8\77-8\55---8\77-8\55-|
   . .. . ..   . .. . ..   . .. . ..   . .. . ..  .palm mute

Bridge3:
d|--------------------------------------------------------|
a|--------------------------------------------------------|
F|--------------------------------------------------------|
C|--------------------------------------------------------|
G|--------------------------------------------------------|
D|--------------------------------------------------------|
A|-4/55\4/77757-4/55\4/77757-8\77/8\5555544-8\77\8/555544-|
   . .. . ..... . .. . ..... . .. . ....... . .. . ......  .palm mute

Bridge4:
d|-------------------------------------------------------------|
a|-------------------------------------------------------------|
F|-------------------------------------------------------------|
C|-------------------------------------------------------------|
G|-6/77\6/99979-6/77\6/99979-10\99/10\77x7766-10\99/10\77x7766-|
D|-6/77\6/99979-6/77\6/99979-10\99/10\77x7766-10\99/10\77x7766-|
A|-4/55\4/77757-4/55\4/77757- 8\77/ 8\55x5544- 8\77/ 8\55x5544-|

Chorus:
d|-------------------------------------------------------------------------|
a|-------------------------------------------------------------------------|
F|-------------------------------------------------------------------------|
C|-------------------------------------------------------------------------|    (guitar1)
G|-77777777--575-1010101010101010-575-1212121212121212-5~~~~-777777777-575-|
D|-77777777--575-1010101010101010-575-1212121212121212-5~~~~-777777777-575-|
A|-55555555--353- 8 8 8 8 8 8 8 8-353-1010101010101010-3~~~~-555555555-353-|

d|-------------------------------------------------------------------------|
a|-------------------------------------------------------------------------|
F|-------------------------------------------------------------------------|
C|-------------------------------------------------------------------------|    (guitar2)
G|-7910-7910-710-575-7910-7910-710-575-7910-7910-710-5~~~7910-7910-710-575-|
D|---------------575---------------575---------------5~~~--------------575-|
A|---------------353---------------575---------------5~~~--------------575-|

d|--------------------------------------------------|
a|--------------------------------------------------|
F|--------------------------------------------------|
C|-212121212121212119191919191919191717171717171717-|   (synth)
G|-xxxxxxxxxxxxxxxxxxxxxxxxxxxxxxxxxxxxxxxxxxxxxxxx-|
D|-191919191919191917171717171717171515151515151515-|
A|--------------------------------------------------|
Добавлено: 26.06.2012
Другие материалы по этой песне:

Страница создана 27.02.2012
http://primanota.ru/korn/evolution-chords.htm
Привет, Гость.
Предлагаем пройти революционный курс по гитаре.
Подарок от PrimaNota.Ru, забирай!