PrimaNota.ru - самый крупный в мире бесплатный архив песенных текстов, аккордов, табулатур и нот


Korn - Eaten Up Inside - текст песни, таба, видео

Регистрация Запомнить меня
Войти через:  Facebook Google Twitter Vk Yandex Mail.ru

Korn - Eaten Up Inside - текст песни, таба, видео

Печатать
Просмотров: 167
Korn - See You On The Other Side - Eaten Up Inside

Tabbed By: FRr3AkOnALEaSh (smokin_05@hotmail.com)
Tuning: 7 String Tuned Low to High (A D G C F a d)

Vocal: Jonathan Houseman Davis 'Hiv'
Guitar: James Randal Shaffer 'Munky'
Bass: Reginald Arvizu 'Fieldy
Drums: David Silveria

Riff 1 (Intro/Verse)(Guitar 1)
D|--------------------|
A|--------------------|
F|--------------------|
C|--------------------|
G|--2-2-222-222--5----|
D|--0-0-000-000--3-6--|
A|-----------------4--|

Riff 2 (Intro/Verse)(Guitar 1)
D|-------------------|
A|-------------------|
F|-------------------|
C|-------------------|
G|--2-2-222-333-444--|
D|--0-0-000-111-222--|
A|-------------------|

Riff 3 (Verse)(Guitar 1)
D|---------------------------|
A|---------------------------|
F|---------------------------|
C|---------------------------|
G|--2-2-222-333--5-----------|
D|--0-0-000-111--3-6---------|
A|-----------------4---------|

Riff 4 (Verse)(Guitar 2)
D|---------------------10\6--|
A|----------------------x\x--|
F|----------------------7\3--|
C|---------------------------|
G|---------------------------|
D|---------------------------|
A|---------------------------|

Riff 5 (Verse)(Guitar 1)
D|-------------------|
A|-------------------|
F|-------------------|
C|-------------------|
G|--2-2-222-333-444--|
D|--0-0-000-111-222--|
A|-------------------|

Riff 6 (Pre-Chorus)(Guitar 2)
D|------------------------------------------------------------------|
A|------------------------------------------------------------------|
F|--5---5---5---5---5---5---5---5---8---8---8---8---9---9---11--11--|
C|--x---x---x---x---x---x---x---x---x---x---x---x---x---x---x---x---|
G|--3---3---3---3---3---3---3---3---6---6---6---6---7---7---9---9---|
D|------------------------------------------------------------------|
A|------------------------------------------------------------------|

Riff 7 (Pre-Chorus)(Guitar 2)
D|-------------------------------------------------|
A|-------------------------------------------------|
F|--5---5---5---5---5---5---5---5---8---8---8---8--|
C|--x---x---x---x---x---x---x---x---x---x---x---x--|
G|--3---3---3---3---3---3---3---3---6---6---6---6--|
D|-------------------------------------------------|
A|-------------------------------------------------|

Riff 8 (Chorus)(Guitar 1)
D|--------------------------------------------|
A|--------------------------------------------|
F|--------------------------------------------|
C|--------------------------------------------|
G|--------------------------------------------|
D|--------------------------------------------|
A|--210--2025--20--2025--20--2025--2/1--1h0~--|

Riff 9 (Chorus)(Guitar 1)
D|--------------------------------------------|
A|--------------------------------------------|
F|--------------------------------------------|
C|--------------------------------------------|
G|--------------------------------------------|
D|--------------------------------------------|
A|--210--2025--20--2025--20--2025--21--0-0-0--|

Riff 10 (Pre-Verse/Fill)(Guitar 1)
D|-------------------------------|
A|-------------------------------|
F|-------------------------------|
C|------------8\7--7\6--6\5--5~--|
G|--8\7--7\6--6\5--5\6--4\3--3~--|
D|--6\5--5\4---------------------|
A|-------------------------------|

Riff 11 (Bridge)(Guitar 1)
D|------------------------|
A|------------------------|
F|------------------------|
C|------------------------|
G|------------------------|
D|------------------------|
A|--2p0-2222--0p2h0-2222--|

Riff 12 (Bridge)(Guitar 1)
D|--------------------------------------|
A|--------------------------------------|
F|--------------------------------------|
C|--------------------------------------|
G|--------------------------------------|
D|--------------------------------------|
A|--2p0-2222---0h2p0-2222---0h2p0-2222--|

Riff 13 (Bridge)(Guitar 2)
D|---------------|
A|---------------|
F|---------------|
C|--8--8--7--6~--|
G|--x--x--x--x~--|
D|--6--6--5--4~--|
A|---------------|

Riff 14 (Outro)(Guitar 1)
D|--------------------------------------|
A|--------------------------------------|
F|--------------------------------------|
C|------------8\7--7\6--6\5--5~--7\6\5--|
G|--8\7--7\6--6\5--5\6--4\3--3~--5\4\3--|
D|--6\5--5\4----------------------------|
A|--------------------------------------|

NOTE: Listen to the song to structure out each riff
Добавлено: 03.04.2012
Другие материалы по этой песне:

Страница создана 29.02.2012
http://primanota.ru/korn/eaten-up-inside-chords.htm
Привет, Гость.
Предлагаем пройти революционный курс по гитаре.
Подарок от PrimaNota.Ru, забирай!