PrimaNota.ru - самый крупный в мире бесплатный архив песенных текстов, аккордов, табулатур и нот


Killswitch Engage - My Last Serenade - аккорды и текст, таба, бас-таба, видео

Регистрация Запомнить меня
Войти через:  Facebook Google Twitter Vk Yandex Mail.ru

Killswitch Engage - My Last Serenade - аккорды и текст, таба, бас-таба, видео

Печатать
Просмотров: 380
Авторы музыки: Killswitch Engage
Авторы текста: Jesse Leach
My Last Serenade
Killswitch Engage
Song: My Last Serenade
Artist: Killswitch Engage
Album: Alive or Just Breathing
Tabbed by: Christian / silent_warrior_@hotmail.com

 - Slide Down
/ - Slide Up
PM - Palm mute
h - Hammer on
~ - Vibrato
( ) - Play the first time only


Tuning - C G C F A D


Intro (clean)
|-----1-----0-----1-|
|----3-----1-----1--|
|---2-----x-----3---|
|--0-----3-----3----|
|-0-----3-----1-----|
|-------------------|


Distortion
|---------------------------------------|
|---------------------------------------|
|---------------------------------------| x4
|-4-0-0-4-0-0-4--0-0--0-0-0-0-0-0-|
|-4-0-0-4-0-0-4--0-0--0-0-0-0-0-0-|
|-4-0-0-4-0-0-4--0-0--0-0-0-0-0-0-|
PM    - -     - -      - -  - - - - - -


Verse
|-------------------------------------------------------|
|-------------------------------------------------------|
|---------------------------------------------3---------| x4
|-3-0-1-3-1-0--0-1-3-1-0---3-0-1-3-1-0--0-3-0-3-0-5-|
|-3-0-1-3-1-0--0-1-3-1-0---3-0-1-3-1-0--0-1-0-3-0-5-|
|-3-0-1-3-1-0--0-1-3-1-0---3-0-1-3-1-0--0---0-3-0-5-|
PM    - - - -    - - - -         - - - -    -   -   -
  

Distortion
|---------------------------------------|
|---------------------------------------|
|---------------------------------------| x4
|-4-0-0-4-0-0-4--0-0--0-0-0-0-0-0-|
|-4-0-0-4-0-0-4--0-0--0-0-0-0-0-0-|
|-4-0-0-4-0-0-4--0-0--0-0-0-0-0-0-|
PM    - -     - -      - -  - - - - - -


Pre-chorus
|-------------------------------------------------------------------|
|-------------------------------------------------------------------|
|------------------------------------------10-9-7-9-5/7-5-3/5-3-----| x4
|-(3)-0--0-0-0--0-0-3--0-0-3--0-0-3--10-9-7-9-5/7-5-3/5-3-0h3-|
|-(3)-0--0-0-0--0-0-3--0-0-3--0-0-3--8--7-5-7-3/5-3-1/3-1-0h3-|
|-(3)-0--0-0-0--0-0-3--0-0-3--0-0-3-----------------------0h3-|
PM       - - -  - -      - -      - -
 

Chorus
|-----------------------------------------------------------------|
|-6-6-6-6--5-5-5--6-6-6-6--5-5-5--6-6-6-6-------------------------|
|-5-5-5-5--5-5-5--5-5-5-5--5-5-5--5-5-5-5-------------------------| x4
|-3-3-3-3--3-3-3--3-3-3-3--3-3-3--3-3-3-3--0-0--2-3-2--0-0--0-2-3-|
|-3-3-3-3--3-3-3--3-3-3-3--3-3-3--3-3-3-3-------------------------|
|-----------------------------------------------------------------|
PM                                         - -         - -


Bridge
|----------------------------------------------------------------------|         
|----------------------------------------------------------------------|        
|----------------------------------------------------------------------| x4      
|-(0-0)--10-12--------0-0-0-0-0-0-0---0-0-0-0-0-0-0---0-0-0-0-0-0-0--0-|        
|-(0-0)--------10-----0-0-0-0-0-0-0---0-0-0-0-0-0-0---0-0-0-0-0-0-0--0-|       
|-(0-0)-----------8~--0-0-0-0-0-0-0---0-0-0-0-0-0-0---0-0-0-0-0-0-0--0-|        
PM - -                - - - - - - -   - - - - - - -   - - - - - - -


Verse - Guitar 1
|-------------------------------------------------------|
|-------------------------------------------------------|
|---------------------------------------------3---------| x4
|-3-0-1-3-1-0--0-1-3-1-0---3-0-1-3-1-0--0-3-0-3-0-5-|
|-3-0-1-3-1-0--0-1-3-1-0---3-0-1-3-1-0--0-1-0-3-0-5-|
|-3-0-1-3-1-0--0-1-3-1-0---3-0-1-3-1-0--0---0-3-0-5-|
PM    - - - -    - - - -         - - - -    -   -   -


Verse - Guitar 2 (not sure about this part)
|---------------------------------------------------|
|-3-3-3-3-3-3-3-3--6-6-6-6-6-6-6-6--3-3-3-3-3-3-3-3-|
|---------------------------------------------------| x1
|-0-0-0-0-0-0-0-0--3-3-3-3-3-3-3-3--0-0-0-0-0-0-0-0-|
|---------------------------------------------------|
|---------------------------------------------------|

   
Verse
|-------------------------------------------------------|
|-------------------------------------------------------|
|---------------------------------------------3---------| x4
|-3-0-1-3-1-0--0-1-3-1-0---3-0-1-3-1-0--0-3-0-3-0-5-|
|-3-0-1-3-1-0--0-1-3-1-0---3-0-1-3-1-0--0-1-0-3-0-5-|
|-3-0-1-3-1-0--0-1-3-1-0---3-0-1-3-1-0--0---0-3-0-5-|
PM    - - - -    - - - -         - - - -    -   -   -


Pre-chorus
|-------------------------------------------------------------------|
|-------------------------------------------------------------------|
|------------------------------------------10-9-7-9-5/7-5-3/5-3-----| x4
|-(3)-0--0-0-0--0-0-3--0-0-3--0-0-3--10-9-7-9-5/7-5-3/5-3-0h3-|
|-(3)-0--0-0-0--0-0-3--0-0-3--0-0-3--8--7-5-7-3/5-3-1/3-1-0h3-|
|-(3)-0--0-0-0--0-0-3--0-0-3--0-0-3-----------------------0h3-|
PM       - - -  - -      - -      - -


Chorus / Outro
|-----------------------------------------------------------------|     |------|
|-6-6-6-6--5-5-5--6-6-6-6--5-5-5--6-6-6-6-------------------------|     |------|
|-5-5-5-5--5-5-5--5-5-5-5--5-5-5--5-5-5-5-------------------------| x2  |------| x1 (Last note)
|-3-3-3-3--3-3-3--3-3-3-3--3-3-3--3-3-3-3--0-0--2-3-2--0-0--0-2-3-|     |--10--|
|-3-3-3-3--3-3-3--3-3-3-3--3-3-3--3-3-3-3-------------------------|     |---8--|
|-----------------------------------------------------------------|     |---8--|
PM                                         - -         - -
Добавлено: 23.05.2012
Другие материалы по этой песне:

Страница создана 27.02.2012
http://primanota.ru/killswitch-engage/my-last-serenade-chords.htm
Привет, Гость.
Предлагаем пройти революционный курс по гитаре.
Подарок от PrimaNota.Ru, забирай!