PrimaNota.ru - самый крупный в мире бесплатный архив песенных текстов, аккордов, табулатур и нот


Killswitch Engage - I Would Do Anything - текст песни, таба, бас-таба, видео

Регистрация Запомнить меня
Войти через:  Facebook Google Twitter Vk Yandex Mail.ru

Killswitch Engage - I Would Do Anything - текст песни, таба, бас-таба, видео

Печатать
Просмотров: 157
Sorry if the thing says intro on the title im kinda new at this tabbing stuff
and i don't know how to take it off.

So this is what i think it sounds to me :) let me know what you think.

INTRO: Guitar I plays 4x
(Guitar II play this part 2x)
|--------------------------------------------------------|
|--------------------------------------------------------|
|--------------------------------------------------------|
|----------------------------------------3-------5\7-7---|
|30-0~-000--30-0~-000~-0~-30-0~-00-5-6-8-1-0000--3\5-5---|
|30-0~-000--30-0~-000~-0~-30-0~-00-5-6-8---0000----------|
 ..    ...  ..    ...  .  ..    .. . . .   ....

Guitar II
|------------------------------------------------------------------|
|------------------------------------------------------------------|
|----------------------------------------------------------\10-10--|
|---------------------------------------------------3-------x-x----|
|30-0~-300-0-0-0-0-30-0~-000-0-0-0-0-30-0~-00-5-6-8-1-0000-\8-8----|
|30-0~-300-0-0-0-0-30-0~-000-0-0-0-0-30-0~-00-5-6-8---0000---------|
 ..    ... . . . . ..    ... . . . . ..    .. . . .

VERSE: 2x
|--------------------------------------------|
|--------------------------------------------|
|--2-------------------------------2---------|
|--2---3-3-------------------------2---3-----|
|0-0-0-1-1-0-000-000-000-000-000-0-0-0-1-0---|
|0---0-----0-000-000-000-000-000-0---0---0---|
 .   .     . ... ... ... ... ... .   .   .

---------------------------------------------|
---------------------------------------------|
--------------------5---7\-------------------|
-000-000-000-000-00-3-0-5\-------------------|
-000-000-000-000-00---0----------------------|
 ... ... ... ... ..   .

CHORUS:
(i think one guitar palms the second time you play the open chords...idk)
|----------------------------------------------------------------|
|----------------------------------------------------------------|
|----------------------------------------------------------------|
|----------------------------------------------------------------|
|-0~--0~-7-7-3-3~--3-3-5-5-8-8~--0~--0~-7-7-3-3~---3-3-5-5-0-0-0-|
|-0~--0~-7-7-3-3~--3-3-5-5-8-8~--0~--0~-7-7-3-3~---3-3-5-5-0-0-0-|
                                                           . . .
then this
|--------------------------------------------------------|
|--------------------------------------------------------|
|--------------------------------------------------------|
|----------------------------------------3-------5\7-7---|
|30-0~-000--30-0~-000~-0~-30-0~-00-5-6-8-1-0000--3\5-5---|
|30-0~-000--30-0~-000~-0~-30-0~-00-5-6-8---0000----------|
 ..    ...  ..    ...  .  ..    .. . . .   ....

THE THING AFTER THE CHORUS:
tremolo pick these notes(or strum real fast except the last 2 notes)
|---------------------|
|---------------------|
|-10-9-7-5-3---\10-10-|
|-x--x-x-x-x----x--x--|
|-8--7-5-3-1---\8--8--|
|---------------------|

VERSE 2: 2x
|--------------------------------------------|
|--------------------------------------------|
|--2-------------------------------2---------|
|--2---3-3-------------------------2---3-----|
|0-0-0-1-1-0-000-000-000-000-000-0-0-0-1-0---|
|0---0-----0-000-000-000-000-000-0---0---0---|
 .   .     . ... ... ... ... ... .   .   .

---------------------------------------------|
---------------------------------------------|
--------------------5---7\-------------------|
-000-000-000-000-00-3-0-5\-------------------|
-000-000-000-000-00---0----------------------|
 ... ... ... ... ..   .

CHORUS 2: 2x
(The Second time one guitar palms throughout)
|----------------------------------------------------------------|
|----------------------------------------------------------------|
|----------------------------------------------------------------|
|----------------------------------------------------------------|
|-0~--0~-7-7-3-3~--3-3-5-5-8-8~--0~--0~-7-7-3-3~---3-3-5-5-0-0-0-|
|-0~--0~-7-7-3-3~--3-3-5-5-8-8~--0~--0~-7-7-3-3~---3-3-5-5-0-0-0-|
                                                           . . .

BRIDGE:
Guitar I 6x
Guitar II 4x
|-----------------------------------------------|
|-----------------------------------------------|
|-----------------------------------------------|
|0---0---0----0-----0-0---0---0-----------------|
|0-3-0-5-0-\6-0-\5~-0-0-8-0-7-0-3\5p0-----------|
 .   .    .    .    . .   .   .
------------------------------|
------------------------------|
------------------------------|
------------------------------|
0-0-0-0-0-0-0-0-0-0-0-0-0-0---|
0-0-0-0-0-0-0-0-0-0-0-0-0-0---|
. . . . . . . . . . . . . .

Guitar II comes in the 5x
|-----------------------------------------|
|-----------------------------------------|
|-----------------------------------------|
|-----------------------------------------|
|-0-3-0--5-0-\6-0-\5~-0-0-8-0-7--0-3\5p0--|
|-0---0----0----0-----0-0---0----0--------|
  .   .    .    .     . .   .    .

------------------------------|
------------------------------|
------------------------------|
------------------------------|
0-0-0-0-0-0-0-0-0-0-0-0-0-0---|
0-0-0-0-0-0-0-0-0-0-0-0-0-0---|
. . . . . . . . . . . . . .


CHORUS 3: Guitar I
|------------------------------------|
|------------------------------------|
|------------------------------------|
|------------------------------------|
|-0~-0~------------------------------|
|-0~-0~-/7-7-/3-3~--/3-3-/5-5-/8-8~--|


------------------------------------|
------------------------------------|
------------------------------------|
------------------------------------|
-0~-0~------------------------------|
-0~-0~-/7-7-/3-3~---/3-3-/5-5-0-0-0-|
                              . . .
Guitar II
|-----------------------------------------|
|-----------------------------------------|
|-----------------------------------------|
|-----------------------------------------|
|-0~--0~----------------------------------|
|-0~--0~-/10-10-/7-7~--/7-7-/8-8-/12-12~--|


--------------------------------------|
--------------------------------------|
--------------------------------------|
--------------------------------------|
-0~-0~--------------------------------|
-0~-0~-/10-10-/7-7~---/7-7-/8-8-0-0-0-|
                                . . .
Guitar I
|--------------------------------------|
|--------------------------------------|
|--------------------------------------|
|--------------------------------------|
|-0-----------7-7-3-3~--3-3-5-5-8-8~---|
|-0-0-0-0-0-0-7-7-3-3~--3-3-5-5-8-8~---|
    . . . . .
-----------------------------------------|
-----------------------------------------|
-----------------------------------------|
-----------------------------------------|
-0-----------7-7-3-3~---3-3-5-5--0-0-0---|
-0-0-0-0-0-0-7-7-3-3~---3-3-5-5--0-0-0---|
   . . . . .                     . . .

Guitar II
(not so sure about this part but i know the 2 guitar plays something)
|---------------------------------------|
|---------------------------------------|
|-----------------------5-5-7-7-10-10~--|
|-----------------------x-x-x-x-x--x----|
|-0-----------7-7-3-3~--3-3-5-5-8--8~---|
|-0-0-0-0-0-0-7-7-3-3~------------------|
    . . . . .
-----------------------------------------|
-----------------------------------------|
------------------------5-5-7-7----------|
------------------------x-x-x-x----------|
-0-----------7-7-3-3~---3-3-5-5--0-0-0---|
-0-0-0-0-0-0-7-7-3-3~------------0-0-0---|
   . . . . .                     . . .

let me know if there's any mistakes or corrections.
Добавлено: 29.03.2012
Другие материалы по этой песне:

Страница создана 29.03.2012
http://primanota.ru/killswitch-engage/i-would-do-anything-chords.htm
Привет, Гость.
Предлагаем пройти революционный курс по гитаре.
Подарок от PrimaNota.Ru, забирай!