PrimaNota.ru - самый крупный в мире бесплатный архив песенных текстов, аккордов, табулатур и нот


Kataklysm - The Renaissance - бас-таба, видео

Регистрация Запомнить меня
Войти через:  Facebook Google Twitter Vk Yandex Mail.ru

Kataklysm - The Renaissance - бас-таба, видео

Печатать
Просмотров: 167
Tuning: B (B,E,A,D,G)

G|---------------------------------------------4-----7--|
D|--4-5-7-5-4-5-4-4-5-7-5-4-5-4-4-5-7-5-4-5-4-5-5-4-5-5-|
A|-7-------------7-------------5-------------5----------|
E|------------------------------------------------------|
B|------------------------------------------------------|

then quickly
G|--------------------------------------------------|
D|--4-5-7-5-4-5-4-4-5-7-5-4-5-4-4-5-7-5-4-5-4-5-4---|
A|-7-------------7-------------5-------------5---5--|
E|------------------------------------------------7-|
B|--------------------------------------------------|

G|---------------------------------------------4-----7--|
D|--4-5-7-5-4-5-4-4-5-7-5-4-5-4-4-5-7-5-4-5-4-5-5-4-5-5-|
A|-7-------------7-------------5-------------5----------|
E|------------------------------------------------------|
B|------------------------------------------------------|

then quickly
G|--------------------------------------------------|
D|--4-5-7-5-4-5-4-4-5-7-5-4-5-4-4-5-7-5-4-5-4-5-4---|
A|-7-------------7-------------5-------------5---5--|
E|------------------------------------------------7-|
B|--------------------------------------------------|

G|----------------------------------------------------|
D|----------------------------------------------------|
A|---2-4-5-4-----2-4-5-4-----3-5-5h7-5-3--5-7-7h9-7-5-|
E|--2-------5-2-2-------5-2-3------------5------------|
B|-0-----------0-----------3------------5-------------|
4x

G|---------------------------------------------4-----7--|
D|--4-5-7-5-4-5-4-4-5-7-5-4-5-4-4-5-7-5-4-5-4-5-5-4-5-5-|
A|-7-------------7-------------5-------------5----------|
E|------------------------------------------------------|
B|------------------------------------------------------|

then quickly
G|--------------------------------------------------|
D|--4-5-7-5-4-5-4-4-5-7-5-4-5-4-4-5-7-5-4-5-4-5-4---|
A|-7-------------7-------------5-------------5---5--|
E|------------------------------------------------7-|
B|--------------------------------------------------|

G|---------------------------------------------4-----7--|
D|--4-5-7-5-4-5-4-4-5-7-5-4-5-4-4-5-7-5-4-5-4-5-5-4-5-5-|
A|-7-------------7-------------5-------------5----------|
E|------------------------------------------------------|
B|------------------------------------------------------|

then quickly
G|--------------------------------------------------|
D|--4-5-7-5-4-5-4-4-5-7-5-4-5-4-4-5-7-5-4-5-4-5-4---|
A|-7-------------7-------------5-------------5---5--|
E|------------------------------------------------7-|
B|--------------------------------------------------|

G|-------|
D|-------|
A|----3--|
E|-0-----|
B|-------|
9x


G|-------------------|
D|--------4--4-------|
A|--5-4-5--5--5-4-5--|
E|-2-----2-----------|
B|----------3--2-----|
4x

G|-------------------------------------|
D|-------------------------------------|
A|-------------------------------------|
E|-2-2-222-222-2-555-------------------|
B|-------------------3-3-333-3-222-555-|
4x

G|-------------------|
D|--------4--4-------|
A|--5-4-5--5--5-4-5--|
E|-2-----2-----------|
B|----------3--2-----|
4x

G|-------------------------------------|
D|-------------------------------------|
A|-------------------------------------|
E|-2-2-222-222-2-555-------------------|
B|-------------------3-3-333-3-222-555-|
4x


G|-------|
D|-------|
A|-------|
E|-2-----|
B|---3-2-|

G|-------------------------------------------------|
D|-------------------------------------------------|
A|----2---0-----2---0--3-2-0-2-0---3-2-0-2-0-------|
E|-0-3-3-2-3-0-3-3-2-3------3---3-2-----3---3-2----|
B|----------3---------3----------------------------|
4x

bass solo
G|-----------------7/12-11-14p12p11-12-11-12p11p9-------------11-12-9-------|
D|-------9-10-9-10-------------------------------12-10-9-10-12--------------|
A|-9-9h10-------------------------------------------------------------------|
E|--------------------------------------------------------------------------|
B|--------------------------------------------------------------------------|

continuation of bass solo
G|-9-10-11-12-11-10-9-7h9-5h7-4h5-2h4-0h2--------------------|
D|---------------------------------------4h5p4-0h2-2-4-5-4-2-|
A|------------------------------------------------3----------|
E|-----------------------------------------------------------|
B|-----------------------------------------------------------|

continuation of bass solo
G|-------------------------------------------|
D|-5p4p2---------2---4-----5-----0-2-0----2--|
A|------3-2h3-2h3-3-2-3-2-3-3-2-3-----3-2--3-|
E|-------------------------------------------|
B|-------------------------------------------|

G|-------------------|
D|--------4--4-------|
A|--5-4-5--5--5-4-5--|
E|-2-----2-----------|
B|----------3--2-----|
4x

G|-------------------------------------|
D|-------------------------------------|
A|-------------------------------------|
E|-2-2-222-222-2-555-------------------|
B|-------------------3-3-333-3-222-555-|
4x

G|-------------------|
D|--------4--4-------|
A|--5-4-5--5--5-4-5--|
E|-2-----2-----------|
B|----------3--2-----|
4x

G|-------------------------------------|
D|-------------------------------------|
A|-------------------------------------|
E|-2-2-222-222-2-555-------------------|
B|-------------------3-3-333-3-222-555-|
4x

G|---------|
D|---------|
A|---------|
E|-2-----0-|
B|---3-2---|

OUTRO
G|------------------------|
D|------------------------|
A|--7-5h7-7-5h7-7-7--9--9-|
E|-0-----0-----8-8-10-10--|
B|------------------------|
9x
Добавлено: 29.06.2012
Другие материалы по этой песне:
  • Аккорды и текст

Страница создана 29.06.2012
http://primanota.ru/kataklysm/the-renaissance-chords.htm
Привет, Гость.
Предлагаем пройти революционный курс по гитаре.
Подарок от PrimaNota.Ru, забирай!