PrimaNota.ru - самый крупный в мире бесплатный архив песенных текстов, аккордов, табулатур и нот


Jose Gonzalez - Teardrop - текст песни, таба, видео

Регистрация Запомнить меня
Войти через:  Facebook Google Twitter Vk Yandex Mail.ru

Jose Gonzalez - Teardrop - текст песни, таба, видео

Печатать
Просмотров: 330
Авторы: Elizabeth Fraser, Grant Marshall, Andrew Vowles, Robert Del Naja

Artist: José González
Song: Teardrop
Album: In our nature

Tuning: Db Ab Db Ab Bb Eb (Capo 1)

Or alternetively if you're playing a steel string
Tuning: C G C G A D (Capo 2)


Intro                           x4
|---------0---------------0-------|
|-3---------------3---------------|
|-----0-------0-------0-------0---|
|---0---0---0---0---0---0---0---0-|
|---------------------------------|
|---------------------------------|

Verse 1
|---------0---------------0-------|---------0---------------0-------|
|-3---------------3---------------|-3---------------3---------------|
|-----0-------0-------0-------0---|-----0-------0-------0-------0---|
|---0---0---0---0---0---0---0---0-|---0---0---0---0---0---0---0---0-|
|---------------------------------|---------------------------------|
|---------------------------------|---------------------------------|
                                                                  x2
|---------0---------------0-------|---------0---------------0-------|
|-3---------------3---------------|-3---------------3---------------|
|-----0-------0-------0-------0---|-----0-------0-------0-------0---|
|---5---5---5---5---5---5---5---5-|---0---0---0---0---0---0---0---0-|
|---------------------------------|---------------------------------|
|---------------------------------|---------------------------------|

|---------0---------------0-------|---------0---------------0-------|
|-3---------------3---------------|-3---------------3---------------|
|-----0-------0-------0-------0---|-----0-------0-------0-------0---|
|---3---3---3---3---3---3---3---3-|---5---5---5---5---5---5---5---5-|
|---------------------------------|---------------------------------|
|---------------------------------|---------------------------------|

|---------0---------------0-------|---------------------------------|
|-3---------------3---------------|-3-------3--------3------3-------|
|-----0-------0-------0-------0---|-----0-------0-------0-------0---|
|---0---0---0---0---0---0---0---0-|---0---0---0---0---0---0---0---0-|
|---------------------------------|---------------------------------|
|---------------------------------|---------------------------------|
                                x4
|---------------------------------|
|-3-------3-------3-------3-------|
|-----0-------0-------0-------0---|
|---0---0---0---0---0---0---0---0-|
|(0)------------------------------|
|-0-----0-0-------0-----0-0-------|

Verse 2
|---------------------------------|---------------------------------|
|-3-------3-------3-------3-------|-3-------3-------3-------3-------|
|-----0-------0-------0-------0---|-----0-------0-------0-------0---|
|---0---0---0---0---0---0---0---0-|---0---0---0---0---0---0---0---0-|
|---------------------------------|---------------------------------|
|-0-----0-0-------0-----0-0-------|-0-----0-0-------0-----0-0-------|

                                                                  x2

|---------------------------------|---------------------------------|
|-3-------3-------3-------3-------|-3-------3-------3-------3-------|
|-----0-------0-------0-------0---|-----0-------0-------0-------0---|
|---0---0---0---0---0---0---0---0-|---0---0---0---0---0---0---0---0-|
|---------------------------------|---------------------------------|
|-5-----5-5-------5-----5-5-------|-0-----0-0-------0-----0-0-------|

|---------------------------------|---------------------------------|
|-3-------3-------3-------3-------|-3-------3-------3-------3-------|
|-----0-------0-------0-------0---|-----0-------0-------0-------0---|
|---0---0---0---0---0---0---0---0-|---0---0---0---0---0---0---0---0-|
|---------------------------------|---------------------------------|
|-3-----3-3-------3-----3-3-------|-5-----5-5-------5-----5-5-------|

|-------------------------3-------|
|-3-------3-------3-----------3---|
|-----0-------0-------0-----0---0-|
|---0---0---0---0---0---0---------|
|(0)------------------------------|
|-0-----0-0-------0-------0-------|


Interlude 1
|-5-------5-------5-------5-------|-8-------8-------8-------8-------|
|-----3-------3-------3-------3---|-----5-------5-------5-------5---|
|---0---0---0---0---0---0---0---0-|---0---0---0---0---0---0---0---0-|
|-0-----0-0-------0-----0-0-------|-0-----0-0-------0-----0-0-------|
|---------------------------------|---------------------------------|
|---------------------------------|---------------------------------|

|-8-------8-------8-------8-------|-8-------8-------8-------8-------|
|-----8-------8-------8-------8---|-----8-------8-------8-------8---|
|---0---0---0---0---0---0---0---0-|---0---0---0---0---0---0---0---0-|
|-0-----0-0-------0-----0-0-------|-0-----0-0-------0-----0-0-------|
|---------------------------------|---------------------------------|
|---------------------------------|---------------------------------|

Verse 3
|---------------------------------|---------------------------------|
|-3-------3-------3-------3-------|-3-------3-------3-------3-------|
|-----0-------0-------0-------0---|-----0-------0-------0-------0---|
|---0---0---0---0---0---0---0---0-|---0---0---0---0---0---0---0---0-|
|(0)------------------------------|(0)------------------------------|
|-0-----0-0-------0-----0-0-------|-0-----0-0-------0-----0-0-------|
                                                                  x2
|---------------------------------|---------------------------------|
|-3-------3-------3-------3-------|-3-------3-------3-------3-------|
|-----0-------0-------0-------0---|-----0-------0-------0-------0---|
|---0---0---0---0---0---0---0---0-|---0---0---0---0---0---0---0---0-|
|---------------------------------|(0)------------------------------|
|-5-----5-5-------5-----5-5-------|-0-----0-0-------0-----0-0-------|

|---------------------------------|---------------------------------|
|-3-------3-------3-------3-------|-3-------3-------3-------3-------|
|-----0-------0-------0-------0---|-----0-------0-------0-------0---|
|---0---0---0---0---0---0---0---0-|---0---0---0---0---0---0---0---0-|
|---------------------------------|---------------------------------|
|-3-----3-3-------3-----3-3-------|-5-----5-5-------5-----5-5-------|

|---------------------------------|
|-3-------3-------3-------3-------|
|-----0-------0-------0-------0---|
|---0---0---0---0---0---0---0---0-|
|(0)------------------------------|
|-0-----0-0-------0-----0-0-------|

|---------------------------------|---------------------------------|
|-3-------3-------3-------3-------|-3-------3-------3-------3-------|
|-----0-------0-------0-------0---|-----0-------0-------0-------0---|
|---0---0---0---0---0---0---0---0-|---0---0---0---0---0---0---0---0-|
|---------------------------------|---------------------------------|
|-3-----3-3-------3-----3-3-------|-5-----5-5-------5-----5-5-------|

|-------------------------3-------|
|-3-------3-------3-----------3---|
|-----0-------0-------0-----0---0-|
|---0---0---0---0---0---0---------|
|---------------------------------|
|-3-----3-3-------3-------0-------|

Interlude 2
|-5-------5-------5-------5-------|-8-------8-------8-------8-------|
|-----3-------3-------3-------3---|-----5-------5-------5-------5---|
|---0---0---0---0---0---0---0---0-|---0---0---0---0---0---0---0---0-|
|---------------------------------|---------------------------------|
|(0)-----(0)-----(0)-----(0)------|(0)-----(0)-----(0)-----(0)------|
|-0-----0-0-------0-----0-0-------|-0-----0-0-------0-----0-0-------|

|10------10------10------10-------|10------10------10------10-------|
|-----8-------8-------8-------8---|----10------10------10------10---|
|---0---0---0---0---0---0---0---0-|---0---0---0---0---0---0---0---0-|
|---------------------------------|---------------------------------|
|(0)-----(0)-----(0)-----(0)------|(0)-----(0)-----(0)-----(0)------|
|-0-----0-0-------0-----0-0-------|-0-----0-0-------0-----0-0-------|

|---------------------------------|---------------------------------|
|10------10------10------10-------|10------10------10------10-------|
|-----0-------0-------0-------0---|-----0-------0-------0-------0---|
|---0---0---0---0---0---0---0---0-|---0---0---0---0---0---0---0---0-|
|---------------------------------|---------------------------------|
|-8-----8-8-------8-----8-8-------|10----10-10-----10----10-10------|

|---------------------------------|----------------10------10-------|
|10------10------10------10-------|10------10----------10------10---|
|-----0-------0-------0-------0---|-----0-------0-----0---0---0---0-|
|---0---0---0---0---0---0---0---0-|---0---0---0---0-----------------|
|---------------------------------|---------------------------------|
|-8-----8-8-------8-----8-8-------|10----10-10-----10----10-10------|

|-0---0---0-----------------------|
|-3---3---3-----------------------|
|-0---0---0-----------------------|
|-0---0---0-----------------------|
|-0---0---0-----------------------|
|-0---0---0-----------------------|
Добавлено: 03.09.2013
Другие материалы по этой песне:

Страница создана 03.09.2013
http://primanota.ru/jose-gonzalez/teardrop-chords.htm
Привет, Гость.
Предлагаем пройти революционный курс по гитаре.
Подарок от PrimaNota.Ru, забирай!