PrimaNota.ru - самый крупный в мире бесплатный архив песенных текстов, аккордов, табулатур и нот


Jose Gonzalez - Storm - текст песни, таба, видео

Регистрация Запомнить меня
Войти через:  Facebook Google Twitter Vk Yandex Mail.ru

Jose Gonzalez - Storm - текст песни, таба, видео

Печатать
Просмотров: 243
Уроки эстрадного вокала в Санкт-Петербурге
-------------------------------------------------------------------------------
			     STORM - Jose Gonzalez
-------------------------------------------------------------------------------
Tabbed by: Tom Walter
Email: josetabs.20.epm [at] spamgourmet.com

Tuning: E A D F# B E

There's no real verse/chorus structure to this song, so I've simply broken it
into the main parts. Parts A, B, and C are fairly similar but they each have
unique variations. They should be played in this order:

  Intro
  Part A, no singing
  Part B, "Send me your position" ...
  Part B, "Why do you keep on running" ...
  Part C, no singing
  Part B, "As soon as the storm is over" ...
  Part C, "Oooooh, as soon as the storm is over" ...
  Outro, "As sooon"...


INTRO (x4)

     1   &   2   &   3   &   4   &
e |-(2)-------------(2)--------------|
B |------------0---------------0-----|
F#|---(0)--0-------0--(0)--0-------0-|
D |-(4)-(4)-(4)--4--(4)-(4)-(4)--4---|
A |----------------------------------|
E |--3---------------3---------------|


PART A

     1   &   2   &   3   &   4   &      1   &   2   &   3   &   4   &
e |----------------------------------|----------------------------------|
B |------------0---------------0-----|------------0---------------0-----|
F#|---(0)--0-------0--(0)--0-------0-|---(0)--0-------0--(0)--0-------0-|
D |-(4)-(4)-(4)--4--(4)-(4)-(4)--4---|-(4)-(4)-(4)--4---4--(4)-(4)--4---|
A |--2---------------0---------------|----------------------------------|
E |----------------------------------|--0-------------------------------|

     1   &   2   &   3   &   4   &      1   &   2   &   3   &   4   &
e |----------------------------------|----------------------------------|
B |------------0---------------0-----|------------0---------------0-----|
F#|---(0)--0-------0--(0)--0-------0-|---(0)--0-------0--(0)--0-------0-|
D |-(4)-(4)-(4)--4--(4)-(4)-(4)--4---|-(4)-(4)-(4)--4---4--(4)-(4)--4---|
A |--2---------------0-----------0---|----------------------------------|
E |----------------------------------|--0-------------------------------|

     1   &   2   &   3   &   4   &      1   &   2   &   3   &   4   &
e |----------------------------------|----------------------------------|
B |------------0---------------0-----|------------0---------------0-----|
F#|---(0)--0-------0--(0)--0-------0-|---(0)--0-------0--(0)--0-------0-|
D |-(4)-(4)-(4)--4--(4)-(4)-(4)--4---|-(4)-(4)-(4)--4---4--(4)-(4)--4---|
A |--2---------------0---------------|----------------------------------|
E |----------------------------------|--0-------------------------------|

     1   &   2   &   3   &   4   &      1   &   2   &   3   &   4   &
e |----------------------------------|----------------------------------|
B |------------0---------------0-----|------------0---------------0-----|
F#|---(0)--0-------0--(0)--0-------0-|---(0)--0-------0--(0)--0-------0-|
D |-(4)-(4)-(4)--4--(4)-(4)-(4)--4---|-(4)-(4)-(4)--4---4--(4)-(4)--4---|
A |--2-------------------------------|----------------------------------|
E |------------------2---------------|--3-------------------------------|

     1   &   2   &   3   &   4   &
e |----------------------------------|
B |------------0-----------3p0-----0-|
F#|---(0)--0-------0--(0)-(0)--0h3(0)|
D |-(4)-(4)-(4)--4---4--(4)-(4)-(4)--|
A |--4-------------------------------|
E |----------------------------------|


PART B

     1   &   2   &   3   &   4   &      1   &   2   &   3   &   4   &
e |----------------------------------|----------------------------------|
B |------------0---------------0-----|------------0---------------0-----|
F#|---(0)--0-------0--(0)--0-------0-|---(0)--0-------0--(0)--0-------0-|
D |-(4)-(4)-(4)--4--(4)-(4)-(4)--4---|-(4)-(4)-(4)--4---4--(4)-(4)--4---|
A |--2---------------0---------------|----------------------------------|
E |----------------------------------|--0-------------------------------|

     1   &   2   &   3   &   4   &      1   &   2   &   3   &   4   &
e |----------------------------------|----------------------------------|
B |------------0---------------0-----|------------0-----------3p0-----0-|
F#|---(0)--0-------0--(0)--0-------0-|---(0)--0-------0--(0)-(0)--0h3(0)|
D |-(4)-(4)-(4)--4--(4)-(4)-(4)--4---|-(4)-(4)-(4)--4---4--(4)-(4)-(4)--|
A |--2---------------0---------------|----------------------------------|
E |----------------------------------|--0-------------------------------|

     1   &   2   &   3   &   4   &      1   &   2   &   3   &   4   &
e |----------------------------------|----------------------------------|
B |------------0---------------0-----|------------0---------------0-----|
F#|---(0)--0-------0--(0)--0-------0-|---(0)--0-------0--(0)--0-------0-|
D |-(4)-(4)-(4)--4--(4)-(4)-(4)--4---|-(4)-(4)-(4)--4---4--(4)-(4)--4---|
A |--2---------------0---------------|----------------------------------|
E |----------------------------------|--0-------------------------------|

     1   &   2   &   3   &   4   &      1   &   2   &   3   &   4   &
e |----------------------------------|----------------------------------|
B |------------0---------------0-----|------------0---------------0-----|
F#|---(0)--0-------0--(0)--0-------0-|---(0)--0-------0--(0)--0-------0-|
D |-(4)-(4)-(4)--4--(4)-(4)-(4)--4---|-(4)-(4)-(4)--4---4--(4)-(4)--4---|
A |--2---------------0---------------|----------------------------------|
E |----------------------------------|--0-------------------------------|

     1   &   2   &   3   &   4   &      1   &   2   &   3   &   4   &
e |----------------------------------|----------------------------------|
B |------------0---------------0-----|------------0-----------3p0-----0-|
F#|---(0)--0-------0--(0)--0-------0-|---(0)--0-------0--(0)-(0)--0h3(0)|
D |-(4)-(4)-(4)--4---4--(4)-(4)--4---|-(4)-(4)-(4)--4---4--(4)-(4)-(4)--|
A |----------------------------------|--4-------------------------------|
E |--2---------------3---------------|----------------------------------|


PART C

     1   &   2   &   3   &   4   &      1   &   2   &   3   &   4   &
         ^ v
e |------0-0-------------------2-----|------------0---------------------|
B |------0-0---0---------------0-----|------------0---------------0-----|
F#|---(0)0-0-------0--(0)--0-------0-|---(0)--0-------0--(0)--0-------0-|
D |-(4)--4--(4)--4--(4)-(4)-(4)--4---|-(4)-(4)-(4)--4---4--(4)-(4)--0---|
A |--2---------------0---------------|----------------------------------|
E |----------------------------------|--0-------------------------------|

     1   &   2   &   3   &   4   &      1   &   2   &   3   &   4   &
e |----------------------------------|------------0---------------------|
B |------------0---------------3-----|-----------(0)----------3p0-----0-|
F#|---(0)--0-------0--(0)--0-------0-|---(0)--0-------0--(0)-(0)--0h3(0)|
D |-(4)-(4)-(4)--4--(4)-(4)-(4)--4---|-(4)-(4)-(4)--4---4--(4)-(4)-(4)--|
A |--2---------------0---------------|----------------------------------|
E |----------------------------------|--0-------------------------------|

     1   &   2   &   3   &   4   &      1   &   2   &   3   &   4   &
e |------------0---------------2-----|----------------------------------|
B |------------0---------------0-----|------------0---------------0-----|
F#|---(0)--0-------0--(0)--0-------0-|---(0)--0-------0--(0)--0-------0-|
D |-(4)--4--(4)--4--(4)-(4)-(4)--4---|-(4)-(4)-(4)--4---4--(4)-(4)--0---|
A |--2---------------0---------------|----------------------------------|
E |----------------------------------|--0-------------------------------|

     1   &   2   &   3   &   4   &      1   &   2   &   3   &   4   &
e |----------------------------------|------------0---------------------|
B |------------0---------------3-----|----------------------------0-----|
F#|---(0)--0-------0--(0)--0-------0-|---(0)--0-------0--(0)--0-------0-|
D |-(4)-(4)-(4)--4--(4)-(4)-(4)--4---|-(4)-(4)-(4)--4--(4)-(4)-(4)--4---|
A |--2---------------0---------------|----------------------------------|
E |----------------------------------|--0-------------------------------|

     1   &   2   &   3   &   4   &      1   &   2   &   3   &   4   &
e |-(2)-------------(2)--------------|-(2)-------------(2)--------------|
B |------------0---------------0-----|------------0---------------0-----|
F#|---(0)--0-------0--(0)--0-------0-|---(0)--0-------0--(0)--0-------0-|
D |-(4)-(4)-(4)--4--(4)-(4)-(4)--4---|-(4)-(4)-(4)--4--(4)-(4)-(4)--4---|
A |----------------------------------|------------------------------0---|
E |--3---------------3---------------|--3---------------3---------------|


OUTRO

     1   &   2   &   3   &   4   &      1   &   2   &   3   &   4   &
e |-(2)-------------(2)--------------|-(2)-------------(2)--------------|
B |------------0---------------0-----|------------0---------------0-----|
F#|---(0)--0-------0--(0)--0-------0-|---(0)--0-------0--(0)--0-------0-|
D |-(4)-(4)-(4)--4--(4)-(4)-(4)--4---|-(4)-(4)-(4)--4--(4)-(4)-(4)--0---|
A |----------------------------------|----------------------------------|
E |--3---------------3---------------|--3---------------3---------------|

     1   &   2   &   3   &   4   &      1   &   2   &   3   &   4   &                    
                   ^
e |-(5)-------------(7)--------------|--0-------------------------------|
B |------------0---------------0-----|--0-------------------------------|
F#|---(0)--0-------0--(0)--0-------0-|--0-------------------------------|
D |-(4)-(4)-(4)--4--(4)-(4)-(4)--4---|--4-------------------------------|
A |------------------------------0---|--2-------------------------------|
E |--3---------------3---------------|----------------------------------|


| () ghost note (play softer)
| ^  downstroke
| v  upstroke
| h  hammer-on
| p  pull-off
===============================================================================
Добавлено: 16.11.2013
Другие материалы по этой песне:
  • Аккорды и текст

Страница создана 16.11.2013
http://primanota.ru/jose-gonzalez/storm-chords.htm
Привет, Гость.
Предлагаем пройти революционный курс по гитаре.
Подарок от PrimaNota.Ru, забирай!