PrimaNota.ru - самый крупный в мире бесплатный архив песенных текстов, аккордов, табулатур и нот


Jose Gonzalez - Crosses by kim - таба, видео

Регистрация Запомнить меня
Войти через:  Facebook Google Twitter Vk Yandex Mail.ru

Jose Gonzalez - Crosses by kim - таба, видео

Печатать
Просмотров: 804
Уроки эстрадного вокала в Санкт-Петербурге


Tabbed by: KimOlav

Tuning: D,A,D,F#,B,e


--Intro--

   1   amp;   2   amp;   3   amp;   4   amp;    1   amp;   2   amp;   3   amp;   4   amp;
e |--------------------------------|--------------------------------|
B |0-------0-------0-------0-------|0-------0-------0-------0-------|
F#|8-------8-------8-------7-------|5-------5-------5-------5-------|
D |----0-------0---------------0---|----0-------0---------------0---|
A |--------------------------------|--------------------------------|
D |9-------------------7-----------|5-------------------5-----------|



   1   amp;   2   amp;   3   amp;   4   amp;    1   amp;   2   amp;   3   amp;   4   amp;
e |--------------------------------|--------0---------------0-------|
B |0-------0-------0-------0-------|0-------0-------7-------0-------|
F#|5-------5-------5-------7-------|8---------------8---------------|
D |----0-------0---------------0---|----0-------0-------0-------0---|
A |--------------------------------|--------------------------------|
D |5-------------------7-----------|9-------------------------------|



   1   amp;   2   amp;   3   amp;   4   amp;    1   amp;   2   amp;   3   amp;   4   amp;
e |--------------------------------|--------------------------------|
B |0-------0-------0-------0-------|0-------0-------0-------0-------|
F#|8-------8-------8-------7-------|5-------5-------5-------5-------|
D |----0-------0---------------0---|----0-------0---------------0---|
A |--------------------------------|--------------------------------|
D |--------9-----------7-----------|5-------------------5-----------|



   1   amp;   2   amp;   3   amp;   4   amp;    1   amp;   2   amp;   3   amp;   4   amp;
e |--------------------------------|--------------------------------|
B |0-------0-------0-------0-------|0-------0-------0-------0-------|
F#|5-------5-------0-------3-------|0-------0-------0-------0-------|
D |----0-------0---------------0---|----0-------0---------------0---|
A |--------------------------------|--------------------------------|
D |5-------------------5-----------|9-------------------7-----------|






                              --VERSE 1--


  1   amp;   2   amp;   3   amp;   4   amp;    1   amp;   2   amp;   3   amp;   4   amp;
e |--------------------------------|--------------------------------|
B |0-------0-------0-------0-------|0-------0-------0-------0-------|
F#|8-------8-------8-------7-------|5-------5-------5-------5-------|
D |----0-------0---------------0---|----0-------0---------------0---|
A |--------------------------------|--------------------------------|
D |9-------------------7-----------|5-------------------5-----------|

             Don't you                    know that I'll


   1   amp;   2   amp;   3   amp;   4   amp;    1   amp;   2   amp;   3   amp;   4   amp;
e |--------------------------------|--------0---------------0-------|
B |0-------0-------0-------0-------|0-------0-------7-------0-------|
F#|5-------5-------5-------7-------|8---------------8---------------|
D |----0-------0---------------0---|----0-------0---------------0---|
A |--------------------------------|--------------------------------|
D |5-------------------7-----------|9--------------------9----------|

       Be around      to                  guide you


   1   amp;   2   amp;   3   amp;   4   amp;    1   amp;   2   amp;   3   amp;   4   amp;
e |--------------------------------|--------------------------------|
B |0-------0-------0-------0-------|0-------0-------0-------0-------|
F#|8-------8-------8-------7-------|5-------5-------5-------5-------|
D |----0-------0---------------0---|----0-------0---------------0---|
A |--------------------------------|--------------------------------|
D |9-------------------7-----------|5-------------------5-----------|

             Through your                 Weakest moments


   1   amp;   2   amp;   3   amp;   4   amp;    1   amp;   2   amp;   3   amp;   4   amp;
e |--------------------------------|--------------------------------|
B |0-------0-------0-------0-------|0-------0-------0-------0-------|
F#|5-------5-------5-------7-------|8-------8-------8-------8-------|
D |----0-------0---------------0---|----0-------0---------------0---|
A |--------------------------------|--------------------------------|
D |5-------------------7-----------|9--------------------9----------|

           To leave   them                behind you


 1   amp;   2   amp;   3   amp;   4   amp;    1   amp;   2   amp;   3   amp;   4   amp;
e |--------------------------------|--------------------------------|
B |0-------0-------0-------0-------|0-------0-------0-------0-------|
F#|8-------8-------8-------7-------|5-------5-------5-------5-------|
D |----0-------0---------------0---|----0-------0---------------0---|
A |--------------------------------|--------------------------------|
D |9-------------------7-----------|5-------------------5-----------|

         Returning                       nightmares


  1   amp;   2   amp;   3   amp;   4   amp;    1   amp;   2   amp;   3   amp;   4   amp;
e |--------------------------------|--------0---------------0-------|
B |0-------0-------0-------0-------|0-------0-------7-------0-------|
F#|5-------5-------5-------7-------|8---------------8---------------|
D |----0-------0---------------0---|----0-------0-------0-------0---|
A |--------------------------------|--------------------------------|
D |5-------------------7-----------|9-------------------------------|

                     only                   shadows


  1   amp;   2   amp;   3   amp;   4   amp;    1   amp;   2   amp;   3   amp;   4   amp;
e |--------------------------------|--------------------------------|
B |0-------0-------0-------0-------|0-------0-------0-------0-------|
F#|8-------8-------8-------7-------|5-------5-------5-------5-------|
D |----0-------0---------------0---|----0-------0---------------0---|
A |--------------------------------|--------------------------------|
D |--------9-----------7-----------|5-------------------5-----------|

         We'll cast some light       and you'll be allright


   1   amp;   2   amp;   3   amp;   4   amp;    1   amp;   2   amp;   3   amp;   4   amp;
e |--------------------------------|--------------------------------|
B |0-------0-------0-------0-------|0-------0-------0-------0-------|
F#|5-------5-------0-------3-------|0-------0-------0-------0-------|
D |----0-------0---------------0---|----0-------0---------------0---|
A |--------------------------------|--------------------------------|
D |5-------------------5-----------|9-------------------9-slide-(2)-|












                               --CHORUS--


   1   amp;   2   amp;   3   amp;   4   amp;    1   amp;   2   amp;   3   amp;   4   amp;
e |--------0-----------------------|--------------------------------|
B |0-------0-------0-------0-------|0-------0-------0-------0-------|
F#|0---------------0-------0-------|0-------0-------0-------0-------|
D |----0-------0-------0-------0---|----0-------0---------------0---|
A |--------------------------------|--------------------------------|
D |2-------------------------------|--------------------4-----------|

       We'll cast some light          and you'll be allright


   1   amp;   2   amp;   3   amp;   4   amp;    1   amp;   2   amp;   3   amp;   4   amp;
e |--------------------------------|--------------------------------|
B |0-------0-------0-------0-------|0-------0-------0-------0-------|
F#|5-------5-------5-------5-------|5-------5-------0-------0-------|
D |----0-------0-------0-------0---|----0-------0-------0-------0---|
A |--------------------------------|--------------------0-----------|
D |5-------------------------------|--------------------0-----------|

                For now











                               --VERSE 2--



  1   amp;   2   amp;   3   amp;   4   amp;    1   amp;   2   amp;   3   amp;   4   amp;
e |--------------------------------|--------------------------------|
B |0-------0-------0-------0-------|0-------0-------0-------0-------|
F#|8-------8-------8-------7-------|5-------5-------5-------5-------|
D |----0-------0---------------0---|----0-------0---------------0---|
A |--------------------------------|--------------------------------|
D |9-------------------7-----------|5-------------------5-----------|

             Crosses                    all over


   1   amp;   2   amp;   3   amp;   4   amp;    1   amp;   2   amp;   3   amp;   4   amp;
e |--------------------------------|--------0---------------0-------|
B |0-------0-------0-------0-------|0-------0-------7-------0-------|
F#|5-------5-------5-------7-------|8---------------8---------------|
D |----0-------0---------------0---|----0-------0-------0-------0---|
A |--------------------------------|--------------------------------|
D |5-------------------7-----------|9-------------------------------|

       heavy on                           your shoulders


   1   amp;   2   amp;   3   amp;   4   amp;    1   amp;   2   amp;   3   amp;   4   amp;
e |--------------------------------|--------------------------------|
B |0-------0-------0-------0-------|0-------0-------0-------0-------|
F#|8-------8-------8-------7-------|5-------5-------5-------5-------|
D |----0-------0---------------0---|----0-------0---------------0---|
A |--------------------------------|--------------------------------|
D |--------9-----------7-----------|5-------------------5-----------|

               The sirens                  inside you

   1   amp;   2   amp;   3   amp;   4   amp;    1   amp;   2   amp;   3   amp;   4   amp;
e |--------------------------------|--------0-----------------------|
B |0-------0-------0-------0-------|0-------0-------0-------0-------|
F#|5-------5-------5-------7-------|8---------------8-------8-------|
D |----0-------0---------------0---|----0-------0-------------------|
A |--------------------------------|--------------------------------|
D |5-------------------7-----------|9--------------------9------9---|
                waiting to               step forward


  1   amp;   2   amp;   3   amp;   4   amp;    1   amp;   2   amp;   3   amp;   4   amp;
e |--------------------------------|--------------------------------|
B |0-------0-------0-------0-------|0-------0-------0-------0-------|
F#|8-------8-------8-------7-------|5-------5-------5-------5-------|
D |------------0---------------0---|----0-------0-------------------|
A |--------------------------------|--------------------------------|
D |---9----9-----------7-----------|5-------------------5------5----|

                Disturbing                   silence

  1   amp;   2   amp;   3   amp;   4   amp;    1   amp;   2   amp;   3   amp;   4   amp;
e |--------------------------------|--------0---------------0-------|
B |0-------0-------0-------0-------|0-------0-------7-------0-------|
F#|5-------5-------5-------7-------|8---------------8---------------|
D |----0-------0---------------0---|----0-------0-------0-------0---|
A |--------------------------------|--------------------------------|
D |5-------------------7-----------|9-------------------------------|
               darkens                      your sight



  1   amp;   2   amp;   3   amp;   4   amp;    1   amp;   2   amp;   3   amp;   4   amp;
e |--------------------------------|--------------------------------|
B |0-------0-------0-------0-------|0-------0-------0-------0-------|
F#|8-------8-------8-------7-------|5-------5-------5-------5-------|
D |----0-------0---------------0---|----0-------0---------------0---|
A |--------------------------------|--------------------------------|
D |--------9-----------7-----------|5-------------------5-----------|

         We'll cast some light         and you'll be allright


   1   amp;   2   amp;   3   amp;   4   amp;    1   amp;   2   amp;   3   amp;   4   amp;
e |--------------------------------|--------------------------------|
B |0-------0-------0-------0-------|0-------0-------0-------0-------|
F#|5-------5-------0-------3-------|0-------0-------0-------0-------|
D |----0-------0---------------0---|----0-------0---------------0---|
A |--------------------------------|--------------------------------|
D |5-------------------5-----------|9-------------------9-slide-(2)-|















                               --CHORUS--


   1   amp;   2   amp;   3   amp;   4   amp;    1   amp;   2   amp;   3   amp;   4   amp;
e |--------0-----------------------|--------------------------------|
B |0-------0-------0-------0-------|0-------0-------0-------0-------|
F#|0---------------0-------0-------|0-------0-------0-------0-------|
D |----0-------0-------0-------0---|----0-------0---------------0---|
A |--------------------------------|--------------------------------|
D |2-------------------------------|--------------------4-----------|

       We'll cast some light          and you'll be allright



 1   amp;   2   amp;   3   amp;   4   amp;    1   amp;   2   amp;   3   amp;   4   amp;
e |--------------------------------|--------------------------------|
B |0-------0-------0-------0-------|0-------0-------0-------0-------|
F#|5-------5-------5-------5-------|5-------5-------5-------0-------|
D |----0-------0-------0-------0---|----0-------0-------5-----5/9---|
A |--------------------------------|--------------------------------|
D |5-------------------------------|--------------------------------|










                                --B-part--



   1   amp;   2   amp;   3   amp;   4   amp;    1   amp;   2   amp;   3   amp;   4   amp;
e |------------0---0-------0-------|0-------0-------0-------0-------|
B |--------0-------0-------0-------|0-------0-------0-------0-------|
F#|----8---------------8-------8---|----8-------8---------------8---|
D |9---------------9---------------|7-------------------7-----------|
A |--------------------------------|--------------------------------|
D |--------------------------------|--------------------------------|



   1   amp;   2   amp;   3   amp;   4   amp;    1   amp;   2   amp;   3   amp;   4   amp;
e |0-------0-------0-------0-------|0-------0-------0-------0-------|
B |0-------0-------0-------0-------|0-------0-------0-------0-------|
F#|----8-------8---------------8---|----8-------8---------------8---|
D |9-------------------9-----------|7-------------------7-----------|
A |--------------------------------|--------------------------------|
D |--------------------------------|--------------------------------|














   1   amp;   2   amp;   3   amp;   4   amp;    1   amp;   2   amp;   3   amp;   4   amp;
e |0-------0-------0-------0-------|0-------0-------0-------0-------|
B |0-------0-------0-------0-------|0-------0-------0-------0-------|
F#|----8-------8---------------8---|----8-------8---------------8---|
D |9-------------------9-----------|7-------------------7-----------|
A |--------------------------------|--------------------------------|
D |--------------------------------|--------------------------------|

           Crosses                    all over


   1   amp;   2   amp;   3   amp;   4   amp;    1   amp;   2   amp;   3   amp;   4   amp;
e |0-------0-------0-------0-------|0-------0-------0-------0-------|
B |0-------0-------0-------0-------|0-------0-------0-------0-------|
F#|----8-------8---------------8---|----8-------8---------------8---|   3x
D |--------------------------------|--------------------------------|
A |9-------------------9-----------|7-------------------7-----------|
D |--------------------------------|--------------------------------|

               the boulevard







                            -Last time-

   1   amp;   2   amp;   3   amp;   4   amp;    1   amp;   2   amp;   3   amp;   4   amp;
e |0-------0-------0-------0-------|0-------0-------0-------0-------|
B |0-------0-------0-------0-------|0-------0-------0-------0-------|
F#|----8-------8---------------8---|----8-------8---------------8---|
D |9-------------------9-----------|7-------------------7-----------|
A |--------------------------------|--------------------------------|
D |--------------------------------|--------------------------------|

   1   amp;   2   amp;   3   amp;   4   amp;    1   amp;   2   amp;   3   amp;   4   amp;
e |0-------0-------0-------0-------|0-------0-----------------------|
B |0-------0-------0-------0-------|0-------0-----------0-----------|
F#|----8-------8---------------8---|----8-------8-------8-----------|
D |9-------------------9-----------|9---------------0-------0-------|
A |--------------------------------|----------------0---------------|
D |--------------------------------|----------------0---------------|











--VERSE 3--



  1   amp;   2   amp;   3   amp;   4   amp;    1   amp;   2   amp;   3   amp;   4   amp;
e |--------------------------------|--------0-----------------------|
B |0-------0-------0-------0-------|0-------0-------0-------0-------|
F#|8-------8-------8-------7-------|5---------------5-------5-------|
D |----0-------0---------------0---|----0-------0---------------0---|
A |--------------------------------|--------------------------------|
D |9-------------------7-----------|5-------------------5-----------|

         The streets outside                your window



   1   amp;   2   amp;   3   amp;   4   amp;    1   amp;   2   amp;   3   amp;   4   amp;
e |--------0-----------------------|--------0---------------0-------|
B |0-------0-------0-------0-------|0-------0-------7-------0-------|
F#|5---------------5-------7-------|8---------------8---------------|
D |----0-------0---------------0---|----0-------0-------0-------0---|
A |--------------------------------|--------------------------------|
D |5-------------------7-----------|9-------------------------------|

                      over                 flooded



   1   amp;   2   amp;   3   amp;   4   amp;    1   amp;   2   amp;   3   amp;   4   amp;
e |--------------------------------|--------5-----------------------|
B |0-------0-------0-------0-------|0-------0-------0-------0-------|
F#|8-------8-------8-------7-------|5---------------5-------5-------|
D |----0-------0---------------0---|----0-------0---------------0---|
A |--------------------------------|--------------------------------|
D |--------9-----------7-----------|5-------------------5-----------|

               People                    staring



   1   amp;   2   amp;   3   amp;   4   amp;    1   amp;   2   amp;   3   amp;   4   amp;
e |--------0-----------------------|--------0-----------------------|
B |0-------0-------0-------0-------|0-------0-------0-------0-------|
F#|5---------------5-------7-------|8---------------8-------8-------|
D |----0-------0---------------0---|----0-------0-------------------|
A |--------------------------------|--------------------------------|
D |5-------------------7-----------|9--------------------9------9---|

           They know you've             been broken



  1   amp;   2   amp;   3   amp;   4   amp;    1   amp;   2   amp;   3   amp;   4   amp;
e |--------------------------------|--------0-----------------------|
B |0-------0-------0-------0-------|0-------0-------0-------0-------|
F#|8-------8-------8-------7-------|5---------------5-------5-------|
D |------------0---------------0---|------------0-------------------|
A |--------------------------------|--------------------------------|
D |---9----9-----------7-----------|5---5---------------5------5----|

              Repeatedly                 reminded



  1   amp;   2   amp;   3   amp;   4   amp;    1   amp;   2   amp;   3   amp;   4   amp;
e |--------0-----------------------|--------0---------------0-------|
B |0-------0-------0-------0-------|0-------0-------7-------0-------|
F#|5---------------5-------7-------|8---------------8---------------|
D |----0-------0---------------0---|----0-------0-------0-------0---|
A |--------------------------------|--------------------------------|
D |5-------------------7-----------|9-------------------------------|

     by the looks on                      their faces




  1   amp;   2   amp;   3   amp;   4   amp;    1   amp;   2   amp;   3   amp;   4   amp;
e |--------------------------------|--------0-----------------------|
B |0-------0-------0-------0-------|0-------0-------0-------0-------|
F#|8-------8-------8-------7-------|5---------------5-------5-------|
D |----0-------0---------------0---|----0-------0---------------0---|
A |--------------------------------|--------------------------------|
D |--------9-----------7-----------|5-------------------5-----------|

         Ignore them tonight         and you'll be allright



   1   amp;   2   amp;   3   amp;   4   amp;    1   amp;   2   amp;   3   amp;   4   amp;
e |--------------------------------|--------------------------------|
B |0-------0-------0-------0-------|0-------0-------0-------0-------|
F#|5-------5-------0-------3-------|0-------0-------0-------0-------|
D |----0-------0---------------0---|----0-------0---------------0---|
A |--------------------------------|--------------------------------|
D |5-------------------5-----------|9-------------------9-slide-(2)-|










--FINAL CHORUS--


   1   amp;   2   amp;   3   amp;   4   amp;    1   amp;   2   amp;   3   amp;   4   amp;
e |--------0-----------------------|--------------------------------|----
B |0-------0-------0-------0-------|0-------0-------0-------0-------|0~~~
F#|0---------------0-------0-------|0-------0-------0-------0-------|5~~~
D |----0-------0-------0-------0---|----0-------0---------------0---|----
A |--------------------------------|--------------------------------|----
D |2-------------------------------|--------------------4-----------|5~~~

       We'll cast some light          and you'll be allright


Добавлено: 23.12.2013
Другие материалы по этой песне:
  • Аккорды и текст

Страница создана 23.12.2013
http://primanota.ru/jose-gonzalez/crosses-by-kim-chords.htm
Привет, Гость.
Предлагаем пройти революционный курс по гитаре.
Подарок от PrimaNota.Ru, забирай!