PrimaNota.ru - самый крупный в мире бесплатный архив песенных текстов, аккордов, табулатур и нот


Jose Gonzalez - Stay In The Shade - текст песни, таба, видео

Регистрация Запомнить меня
Войти через:  Facebook Google Twitter Vk Yandex Mail.ru

Jose Gonzalez - Stay In The Shade - текст песни, таба, видео

Печатать
Просмотров: 124
Авторы музыки: José González
Авторы текста: José González
-------------------------------------------------------------------------------
			     STAY IN THE SHADE - Jose Gonzalez
-------------------------------------------------------------------------------
Tabbed by: Tom Walter
Email: josetabs.20.epm [at] spamgourmet.com

Tuning: D A D G B E

Note that most of the ghost notes (marked with ()) are so quiet they are almost
inaudible.

The patterns listed below are played in this order:

Prelude (only on EP version)
Intro:      AAAABABA
Verse 1: 	  AAAAAAAA          "Stay in the shade..."
Chorus 1:   CDDEA             "We'll see how you fade..."
Verse 2:    AAAAEA            "Love moves on..."
Verse 3:    AAAAEA            "And while you don't ..."
Interlude:  AAAA
Chorus 2:   EAEAEA            "We'll see how you fade..."
            FAEAFAG           "Move on..."
Outro:      HIHIJJJK


Prelude (very fast, quiet, slightly uneven)
E|---------------------------|
B|--------------0------------|
G|----0-----0-----0-----0----|
D|------7-----7-----7-----7--|
A|--------0-----0-----0------|
D|--7------------------------|

Pattern A
   1   &   2   &   3   &   4   &
E|----------------------------------|
B|----------------------------------|
G|--(0)------0------(0)------0------|
D|-------7------(7)------7------(7)-|
A|----(0)-(0)--0------(0)-(0)--0----|
D|-7---------------7----------------|

Pattern B
E|----------------------------------|
B|-----------7----------------------|
G|--(0)------0------(0)------0------|
D|-------7------(7)------7------(7)-|
A|----(0)-(0)--0------(0)-(0)--0----|
D|-7---------------7----------------|

Pattern C
E|----------------------------------|
B|----------------------------------|
G|--(0)------0------(0)------0------|
D|-------7------(7)------7------(7)-|
A|----(0)-(0)--0------(0)-(0)--0----|
D|-0---------------5----------------|

Pattern D
E|---------------0------------------|
B|-------8---7----------------------|
G|--(0)-------------(0)------0------|
D|-----------------------7------(7)-|
A|----(0)-(0)--0------(0)-(0)--0----|
D|-7---------------7----------------|

Pattern E
E|---------------0------------------|
B|-------8---7----------------------|
G|--(0)-------------(0)------0------|
D|-----------------------7------(7)-|
A|----(0)-(0)--0------(0)-(0)--0----|
D|-0---------------5----------------|

Pattern F
E|----------------------------------|
B|----------------------------------|
G|--(0)------0------(0)------0------|
D|-------7------(7)------7------(7)-|
A|----(0)-(0)--0------(0)-(0)--0----|
D|-5---------------4----------------|

Pattern G
E|-------0--------------------------|----------------------------------|
B|-----------7----------------------|----------------------------------|
G|--(0)-------------(0)------0------|--(0)------0------(0)------0------|
D|--------------(7)------7------(7)-|-------7------(7)------7------(7)-|
A|----(0)-(0)--0------(0)-(0)--0----|----(0)-(0)--0------(0)-(0)--0----|
D|-0---------------4----------------|-5---------------5----------------|

Pattern H
E|----------------------------------|
B|---------------------------7------|
G|--(0)------0------(0)------0------|
D|-------7------(7)------7------(7)-|
A|----(0)-(0)--0------(0)-(0)--0----|
D|-7---------------7----------------|

Pattern I
E|---------------------------0------|
B|---------------------------7------|
G|--(0)------0------(0)------0------|
D|-------7------(7)------7------(7)-|
A|----(0)-(0)--0------(0)-(0)--0----|
D|-7---------------7----------------|

Pattern J
E|---------------------------0------|
B|-----------7---------------7------|
G|--(0)------0------(0)------0------|
D|-------7------(7)------7------(7)-|
A|----(0)-(0)--0------(0)-(0)--0----|
D|-7---------------7----------------|

Pattern K
E|-------------------------0--------|
B|-----------7-----7-------7--------|
G|--(0)------0-----0(0)----0--------|
D|-------7------(7)7-----7-7--------|
A|----(0)-(0)--0------(0)0(0)-------|
D|-7---------------7-------7--------|



| () ghost note (play softer)
| ^  downstroke
| v  upstroke
| h  hammer-on
| p  pull-off
===============================================================================
Добавлено: 26.11.2013
Другие материалы по этой песне:
  • Аккорды и текст

Страница создана 26.11.2013
http://primanota.ru/jose-gonzalez/stay-in-the-shade-chords.htm
Привет, Гость.
Предлагаем пройти революционный курс по гитаре.
Подарок от PrimaNota.Ru, забирай!