PrimaNota.ru - самый крупный в мире бесплатный архив песенных текстов, аккордов, табулатур и нот


John Mayall And The Bluesbreakers - Double Crossin Time - таба, видео

Регистрация Запомнить меня
Войти через:  Facebook Google Twitter Vk Yandex Mail.ru

John Mayall And The Bluesbreakers - Double Crossin Time - таба, видео

Печатать
Просмотров: 97
Double Crossin' Time by John Mayall's Bluesbreakers with Eric Clapton.

The bends in the song (6b) are ‘quarter tone bends', this means bending downwards 
of the usually upwards bend.

Verse-piano intro

E|-----------------------------------------------------------------------|
B|-----------------------------------------------------------------------|
G|-----------------------------------------------------------------------|
D|---------------------------------------3---3------------3/5--------3---|
A|-3—-1/3--1/3—-1/3—-1/3--1-------1b--5----5---5-----------------3/5-----|
E|---------------------------3----------------------6--3-----------------|


E|-----------------------------------------------------------------------|
B|-----------------------------------------------------------------------|
G|-----------------------------------------------------------------------|
D|-----------------------3/5---------3-----------------------------------|
A|-3/5\3------------------------3/5-----3/5------------------------------|
E|--------------6b--3------------------------3--------6b--3--------------|

E|---------------------------------------------------------------------------------|
B|---------------------------------------------------------------------------------|
G|---------------------------------------------------------------------------------|
D|-3/5-------3---------------------------3/5---------3-----------------------------|
A|------3/5-------3/5\3------------------------3/5--------3/5----------------------|
E|--------------------------6b--3-------------------------------3--------6b--3-----|

E|-------------------------------------------------------------------|
B|-------------------------------------------------------------------|
G|-------------------------------------------------------------------|
D|-3/5-------3---------------------------3/5---------3---------------| CONTINUED
A|------3/5-------3/5\3------------------------3/5-------------------|
E|--------------------------6b--3------------------------------------|

E|-----------------------------------------------------------------------|
B|-----------------------------------------------------------------------|
G|-----------------------------------------------------------------------|
D|-----------------------------------------------------------------------|
A|-3/5-3/5-3/5-3/5-3/5-3/5-3/5-3/5-3/5-----------------------------------|
E|---------------------------------------6b--3---------------------------|

Solo
E|------15------15------15--------15-------------------------------------|
B|--18-(20)-18-(20)—15b-------18-(20)----18-(20)-18-15----15-------------|
G|-----------------------------------------------------17----15/17-15b---|
D|-----------------------------------------------------------------------|
A|-----------------------------------------------------------------------|
E|-----------------------------------------------------------------------|

E|--------------------------18-(20)-18-(20)--18-15-----------------------|
B|-18-18-(20)-18-18-(20)-18------------------------18-15-----------------|
G|-------------------------------------------------------17-(18)-17------|
D|-----------------------------------------------------------------------|
A|-----------------------------------------------------------------------|
E|-----------------------------------------------------------------------|

                                                                                  Hold bend
E|-----------------------------------------------------------------------|
B|-----------------------------------------------------------------------|
G|-15----17----15/17-15----------15b-------------------------------------|
D|----17----17----------17----17-----------------------------------------|
A|-------------------------17--------------------------------------------|
E|-----------------------------------------------------------------------|

E|--------------------------3--------------------------------------------|
B|-----------------------3-----6\8----8----11b-------11(13)-11-----------|
G|------------[15]\------------------------------------------------------|
D|-----------------------------------------------------------------------|
A|-----------------------------------------------------------------------|
E|-----------------------------------------------------------------------|

E|-------------------------------------------------------------------------------|
B|-(13)--11--8--10-----8--10-10-(11)----8--10-10-(11)-(10)/8----------10/12------|
G|------------------9-----------------9------------------------------------------|
D|-------------------------------------------------------------------------------|
A|-------------------------------------------------------------------------------|
E|-------------------------------------------------------------------------------|

E|-----------------------------------------------------------------------|
B|--10-(12)-(10)-8-10-8----------10---------13-(15)--13-11---------------|
G|-----------------------------------------------------------------------|
D|-----------------------------------------------------------------------|
A|-----------------------------------------------------------------------|
E|-----------------------------------------------------------------------|

E|-------------------------------------15-----15-18-15-18----------------|
B|--13-11-------11b\----------18-(20)-----18-----------------------------|
G|--------12-12----------------------------------------------------------|
D|-----------------------------------------------------------------------|
A|-----------------------------------------------------------------------|
E|-----------------------------------------------------------------------|

E|-20-18-(20-18-(20)-(20)-(18)-15---------------------------------------------|
B|--------------------------------18------------------------------------------|
G|-----------------------------------17-(18)-17----17------17-(19)-(17)/(15)b-|
D|----------------------------------------------17----17----------------------|
A|----------------------------------------------------------------------------|
E|----------------------------------------------------------------------------|

E|-----15------------15--------------------------------------------------|
B|-18-(20)-18-15-18-(20)-18-15-13-(14)-(13)----13----11/13---------------|
G|------------------------------------------12----12---------------------|
D|-----------------------------------------------------------------------|
A|-----------------------------------------------------------------------|
E|-----------------------------------------------------------------------|

E|----------------------3------------------------------------------------|
B|-12-----------------3--------------------------------------------------|
G|----12-12-----5-(7)------5-(6)-(5)/3----5------5-(6)—3/5/3b------------|
D|--------------------------------------5---5----------------------------|
A|-----------------------------------------------------------------------|
E|-----------------------------------------------------------------------|

E|---------------------------------------------------------------------------|
B|-------------------------------------------------3--6----------------------|
G|-------------------------------------------5(7)--------5-(7)-(5)---3-5---3-|
D|----------3b-----------------------------------------------------5-----5---|
A|-3-------------------------3-----------------------------------------------|
E|----6--3------------13\-------0--------------------------------------------|

E|-3-------------------------------------------------------------------------------|
B|---6-3---------------------------------------------------------------------------|
G|-------4-(6)-5-3b---5---3/5/3---3/4----------\7—--3/5/3-----5-(7)-3-5----3---3b--|
D|------------------5---5-------5-----5—3/5-----------------------------5----5-----|
A|---------------------------------------------------------------------------------|
E|---------------------------------------------------------------------------------|

E|-----------------------------------------------------------------------------|
B|-13-(15)-13-(15)-11--13-----------13(15)-13(15)-13(15)-13(15)-13(15)-13(15)--|
G|------------------------12---------------------------------------------------|
D|-----------------------------------------------------------------------------|
A|-----------------------------------------------------------------------------|
E|-----------------------------------------------------------------------------|

E|------------------------------------------------------------------------|
B|-13-11/13/11----11----11(12)------------------------11(13)--11--8-------|
G|-------------12----12--------------------10b----------------------------|
D|-------------------------------\12-----------12-------------------------|
A|------------------------------------------------------------------------|
E|------------------------------------------------------------------------|

E|------3-5-5-(6)-(5)/3---3-5b--3----------------------------------------------------|
B|--3-5-----------------5---------3-----3--------------------------------------------|
G|-----------------------------------5-----3-----------------------------------------|
D|--------------------------------------------5--------------------------------------|
A|-----------------------------------------------5\3---------------------------------|
E|----------------------------------------------------6b--3--1/3--6--3—1/3--6--3—1/3-|

By Jordy
Добавлено: 13.04.2012
Другие материалы по этой песне:
  • Аккорды и текст

Страница создана 13.04.2012
http://primanota.ru/john-mayall-and-the-bluesbreakers/double-crossin-time-chords.htm
Привет, Гость.
Предлагаем пройти революционный курс по гитаре.
Подарок от PrimaNota.Ru, забирай!