PrimaNota.ru - самый крупный в мире бесплатный архив песенных текстов, аккордов, табулатур и нот


John Mayall And The Bluesbreakers - Key To Love - таба, видео

Регистрация Запомнить меня
Войти через:  Facebook Google Twitter Vk Yandex Mail.ru

John Mayall And The Bluesbreakers - Key To Love - таба, видео

Печатать
Просмотров: 100
Авторы музыки: John Mayall
Авторы текста: John Mayall
-------------------------------------------------------------------------------
                  KEY TO LOVE – John Mayall with Eric Clapton
                                 (John Mayall)
                             Blues Breakers [1966]
-------------------------------------------------------------------------------

Tabbed by: varannion
Email:     dm_hughes1@hotmail.com

Tuning: standard

Intro

                             pre-bend           ~~~     co
      E     E7/D     A/C#           C7          B7
e|----------------|--------------------------|----------------|-----------------|
B|----------8--8--|--10--10-(10)11r10p8------|----------------|-----------------|
G|----9--9--------|---------------------9p8--|--9-------------|-----------------|
D|----------------|--------------------------|-------7--9--7--|--(7)------(7)\--|
A|----------------|--------------------------|----------------|-----------------|
E|----------------|--------------------------|----------------|-----------------|



Verse 1,2

      |-----mu/co-----|                    |-----mu/co-----|
      A5    A6       A5                    A5    A6       A5
e|----------------|---------------------|--------------|---------------------|
B|----------------|---------------------|--------------|---------------------|
G|----------------|---------------2--2--|--------------|---------------2--2--|
D|----2--2--4--4--|--2------2--4--------|--2--2--4--4--|--2------2--4--------|
A|----0--0--0--0--|--0------------------|--0--0--0--0--|--0------------------|
E|----------------|---------------------|--------------|---------------------|


      |-----mu/co-----|             co    |-----mu/co-----|             co
      A5    A6       A5                   E5    E6       E5
e|----------------|--------------------|--------------|--------------------|
B|----------------|--------------------|--------------|--------------------|
G|----2-----------|--------------2--2--|--------------|--------------------|
D|----2--2--4--4--|--2------2h4--------|--------------|--------------2--2--|
A|----0--0--0--0--|--0-----------------|--2--2--4--4--|--2-----2h4---------|
E|----------------|--------------------|--0--0--0--0--|--0-----------------|


                                                                    co
      A5
e|---------------------|---------------------------|-------------------|
B|---------------------|---------------------------|-------------------|
G|-------2----------2--|--(2)-----2—-(2)-----------|-----2--(2)--------|
D|-------2-----2h4--2--|--(2)--4--2--(2)--2-----2--|-----2--(2)--2--4--|
A|----0-----4----------|---------------------4-----|--0----------------|
E|---------------------|---------------------------|-------------------|


      co mu            co    |-----mu/co-----|                    |-----mu/co
                             E5    E6       E5                          E6
e|------------------------|--------------|---------------------|--------------|
B|------------------------|--------------|---------------------|--------------|
G|----2--x—-2--(2)--------|--------------|---------------------|--------------|
D|----2--x—-2--(2)--2--4--|--------------|---------------2--2--|--------------|
A|------------------------|--2--2--4--4--|--2-------2h4--------|--2--2--4--4--|
E|------------------------|--0--0--0--0--|--0—-(0)-------------|--0--0--0--0--|


  -----|  mu              co    ~~~~~~~~~~~~~~~ wide vibrato ~~~~~~~~~~~~~~~~~
      E5                   B5                                  A5
e|----------------------|---------------|-------------------|-----------------|
B|----------------------|---------------|-------------------|-----------------|
G|----------------------|-------4----4--|--(4)----4----4\2--|--(2)----2----2--|
D|----------------2-----|---------------|-------------------|-----------------|
A|----2------2h4-----0--|--2------------|-------------------|-----------------|
E|----0--(0)------------|---------------|-------------------|-----------------|


 ~~~~~~~~~~~~~                                               pre-bemd
                                  E         E7/D       A/C#      C7
e|-----------------------------|--------------------|----------------------|
B|-----------------------------|--------------------|----------------------|
G|----(2)----2----0h1p0--------|------------0----0--|--2-—2-(2)4r2p0-------|
D|-----------------------2--0--|--2----2------------|-----------------2p0--|
A|-----------------------------|--------------------|----------------------|
E|-----------------------------|--------------------|----------------------|


      ~~~~         |--let ring--|
      B7
e|--------------------|------------------|
B|-----------------0--|--(0)-------------|
G|--------------------|------------------|
D|----2---------------|------------------|
A|---------0--2-------|------------------|
E|--------------------|------------------|



Solo

      ~~~~~~~~~~~~~~~~~~~~~~~~            co
      A5
e|----12(12)------------|--(12)--—-12(12)--------|--12(12)—-12(12)—-(12)--12(12)--|
B|----15b17-------------|--(17)—---15b17---------|--15b17---15b17---(17)--15b17---|
G|----------------------|------------------------|--------------------------------|
D|----------------------|------------------------|--------------------------------|
A|----------------------|------------------------|--------------------------------|
E|----------------------|------------------------|--------------------------------|


             co   pb co      pb co                                   bss

e|----12(12)-12—--12-----12--12-----|--12(12)----------------------------|
B|----15b17--15—-(15)17—-15-(15)17--|--15b17---15--12--------------------|
G|----------------------------------|------------------15\14p12—-14--12--|
D|----------------------------------|------------------------------------|
A|----------------------------------|------------------------------------|
E|----------------------------------|------------------------------------|


                                                     bss
                                     E5
e|---------------------12--------|-----------------------------------|
B|------------------12-----------|-----------------------------------|
G|--------12—-14b16-------14b16--|---r14p12------14--12------12—14b--|
D|----14-------------------------|-----------14----------14----------|
A|-------------------------------|-----------------------------------|
E|-------------------------------|-----------------------------------|
  
     ~~~~~~~~~~~~~~~~~~~~~~~~~~~~~
       pb – gradual release                                      hold
                                            A5
e|---------------------------------------|----------------------------|
B|---------------------------------------|----------------------------|
G|----(16)-(16)-(16)-(15)-(15)-14-14-12--|--14--12------14--12—14b16--|
D|---------------------------------------|----------14----------------|
A|---------------------------------------|----------------------------|
E|---------------------------------------|----------------------------|


      --------|                       bss

e|---------------------------------------|------15b17—-15b17--15b17--|
B|----15---------------------------------|---------------------------|
G|--------(16)r14--12—14p12------14--12--|---------------------------|
D|---------------------------14----------|--14-----------------------|
A|---------------------------------------|---------------------------|
E|---------------------------------------|---------------------------|


                                  ~~~~
                                  E5
e|----(17)—-15p12------12------|--12---------------------------|
B|-----------------15------15--|----------15-------------------|
G|-----------------------------|--------------14b16r14p12------|
D|-----------------------------|---------------------------14--|
A|-----------------------------|-------------------------------|
E|-----------------------------|-------------------------------|


          bss                                                       bss

e|--------------------------------|----------12------------------------|
B|--------------------------------|-------12---------------------------|
G|----14--12--------------12h14b--|--(16)-------14b16r14p12----14--12--|
D|------------14--12--14----------|-------------------------14---------|
A|--------------------------------|------------------------------------|
E|--------------------------------|------------------------------------|


       co             pr    pb            pr   pb              bss
                                     B5
e|-------------------------------|---------------------------------|
B|-------------------------------|---------------------------------|
G|--------16b18------(17)—-(18)--|--(18)-(17)-(18)r16--14--16--12--|
D|----14-------------------------|---------------------------------|
A|-------------------------------|---------------------------------|
E|-------------------------------|---------------------------------|


           ~~~~  ~~~~          co                      pr    pb     
                                     A5
e|--------------------------------|----------17b19----(18)--(19)--|
B|--------------------------------|-------------------------------|
G|--------------------------------|-------------------------------|
D|----14--------------------------|-------------------------------|
A|--------14----14-—(14)--14--14--|-------------------------------|
E|--------------------------------|-------------------------------|


       pr   pb   pr   pb
                                           E       E7/D
e|----(18)-(19)-(18)-(19)—17p15---------|----------15-----15--15--15--|
B|-------------------------------17p15--|--17--17—-15h17------17------|
G|--------------------------------------|-----------------------------|
D|--------------------------------------|-----------------------------|
A|--------------------------------------|-----------------------------|
E|--------------------------------------|-----------------------------|


                               bss                  bss           ~~~~
      A/C#                 C7                 B7
e|-----------------------------------------|--------------------------|
B|-----------------------------------------|--------------------------|
G|----16\14p12—-14p12------14--12----------|--------12----------------|
D|---------------------14----------14--12--|--14--------14------------|
A|-----------------------------------------|----------------14—---14--|
E|-----------------------------------------|--------------------------|


      ~~~

e|---------------------------|
B|---------------------------|
G|---------------------------|
D|---------------------------|
A|----(14)--------12\--------|
E|----------------12\--------|



Verse 3

        |-----mu/co-----|                    |-----mu/co-----|   mu
        A5    A6       A5                    A5    A6       A5
e||-----------------|---------------------|--------------|---------------------|
B||-----------------|---------------------|--------------|---------------------|
G||o----------------|---------------2--2--|--------------|---------------2--2--|
D||o----2--2--4--4--|--2----2—-2h4--------|--2--2--4--4--|--2----x—-2h4--------|
A||-----0--0--0--0--|--0------------------|--0--0--0--0--|--0------------------|
E||-----------------|---------------------|--------------|---------------------|


      |-----mu/co-----|              co    |-----mu/co-----|              co
      A5    A6       A5                    E5    E6       E5
e|----------------|---------------------|--------------|---------------------|
B|----------------|---------------------|--------------|---------------------|
G|----------------|---------------2--2--|--------------|---------------------|
D|----2--2--4--4--|--2----2--2h4--------|--------------|---------------2--2--|
A|----0--0--0--0--|--0------------------|--2--2--4--4--|--2----x--2h4--------|
E|----------------|---------------------|--0--0--0--0--|--0------------------|



      A5
e|-------------------------|--------------------------|-----------------------|
B|-------------------------|--------------------------|-----------------------|
G|-------2----(2)----------|--2------2—-(2)-----------|-----2---(2)-----------|
D|-------2----(2)--2h4--2--|--2--4---2—-(2)--2-----2--|-----2---(2)--2—-4p2---|
A|----0--------------------|--------------------4-----|--0--------------------|
E|-------------------------|--------------------------|-----------------------|


                               |-----mu/co-----|                    |-----mu/co
                               E5    E6       E5                           E6
e|---------------------------|--------------|---------------------|--------------|
B|---------------------------|--------------|---------------------|--------------|
G|----2----—-2--(2)----------|--------------|---------------------|--------------|
D|----2—-4-—-2--(2)--2-------|--------------|---------------2--2--|--------------|
A|----------------------4p2--|--2--2--4--4--|--2-------2h4--------|--2--2--4--4--|
E|---------------------------|--0--0--0--0--|--0—-(0)-------------|--0--0--0--0--|


  -----|  mu              co    ~~~~~~~~~~~~~~~~~~~~~~~~~~
      E5                   B5                                  A5
e|----------------------|---------------|-------------------|-----------------|
B|----------------------|---------------|-------------------|-----------------|
G|----------------------|-------4----4--|--(4)----4----4\2--|--2--------------|
D|----------------2--2--|---------------|-------------------|-----------------|
A|----2------2h4--------|--2------------|-------------------|-----------------|
E|----0--(0)------------|---------------|-------------------|-----------------|



                           E     E7/D     A/C#          C7
e|----------------------|--------------|--------------------------|
B|----------------------|--------8--8--|--10--10-(10)11r10p8------|
G|----------------------|--9--9--------|---------------------9p8--|
D|----------------------|--------------|--------------------------|
A|----------------------|--------------|--------------------------|
E|----------------------|--------------|--------------------------|


                           ~~~~~~~~~~~~~~~~~~~~~~
      B7                   E7
e|---------------------|-------------------|-------------------|------------------|
B|---------------------|-------------------|-------------------|------------------|
G|----9\------------7--|--(7)--------------|--(7)--------------|--7\--------------|
D|------------------6--|--(6)--------------|--(6)--------------|--6\--------------|
A|---------------------|-------------------|-------------------|------------------|
E|---------------------|-------------------|-------------------|------------------|



Verse 1

I never realised
That you were in pain
I want to help you, honey
Let me see you again
Hurts my soul, babe
When I find you feelin' rough
Life ain't so bad, baby
When I find the key to love


Verse 2

Put a smile on your face
And dry away your tears
Life is bound to get better
As you live your years
Hurts my soul, baby
When I find you feelin' rough
Life ain't so bad, baby
When I find the key to love


Verse 3

Somewhere in this world
The one you waited for
Come along and find you
Turn the key to your door
Hurts my soul, baby
When I find you feelin' rough
Life ain't so bad, baby
When you find the key to love



/    slide up
\    slide down
h    hammer-on
p    pull-off
mu   mute
pb   pre-bend
co   cut off
pr   partial release
bss  bend slightly sharp
~~   vibrato


======================================================================  06 April 2010

Добавлено: 19.06.2012
Другие материалы по этой песне:
  • Аккорды и текст

Страница создана 19.06.2012
http://primanota.ru/john-mayall-and-the-bluesbreakers/key-to-love-chords.htm
Привет, Гость.
Предлагаем пройти революционный курс по гитаре.
Подарок от PrimaNota.Ru, забирай!