PrimaNota.ru - самый крупный в мире бесплатный архив песенных текстов, аккордов, табулатур и нот


John Mayall And The Bluesbreakers - Double Crossing Time - таба, видео

Регистрация Запомнить меня
Войти через:  Facebook Google Twitter Vk Yandex Mail.ru

John Mayall And The Bluesbreakers - Double Crossing Time - таба, видео

Печатать
Просмотров: 108
Авторы музыки: John Mayall, Eric Clapton

This this the intro:

E-----------------------------------------------------------|
B-----------------------------------------------------------|
G-----------------------------------------------------------|
D---------------------------------------3---3---------------|
A----3--1h3--1h3--1h3--1h3--1----1b---5---5---5-------------|
E-----------------------------3-------------------6---3-----|

This is the main riff and is played through out the song.

E-----------------------------------------|
B-----------------------------------------|
G-----------------------------------------|
D---------------3h5~~~~~--------3---------|
A-------------------------3/5------3/5/3--|
E-------6b---3----------------------------|

E-----------------------------------------|
B-----------------------------------------|
G-----------------------------------------|
D---------------3h5~~~~~--------3---------|
A-------------------------3/5------3/5----|
E-------6b---3--------------------------3-|

this is simple to play, but contains a fair amount of bends, hammer-ons and slides. 
is perfect for novices, it also has a slow tempo which is even better
Добавлено: 28.07.2012
Другие материалы по этой песне:
  • Аккорды и текст

Страница создана 28.07.2012
http://primanota.ru/john-mayall-and-the-bluesbreakers/double-crossing-time-chords.htm
Привет, Гость.
Предлагаем пройти революционный курс по гитаре.
Подарок от PrimaNota.Ru, забирай!