PrimaNota.ru - самый крупный в мире бесплатный архив песенных текстов, аккордов, табулатур и нот


John Mayall And The Bluesbreakers - Driving Sideways - таба, видео

Регистрация Запомнить меня
Войти через:  Facebook Google Twitter Vk Yandex Mail.ru

John Mayall And The Bluesbreakers - Driving Sideways - таба, видео

Печатать
Просмотров: 114
Уроки эстрадного вокала в Санкт-Петербурге
Авторы музыки: Sonny Thompson, Freddie King

-------------------------------------------------------------------------------
              DRIVING SIDEWAYS – John Mayall & The Bluesbreakers
                                (Freddie King)
                                Crusade [1967]
-------------------------------------------------------------------------------


Tabbed by: varannion
Email:     dm_hughes1@hotmail.com


Tuning: standard


      NC
e|----6(6)--6(6)--6(6)--6(6)--|--6(6)--6(6)--6(6)--6(6)------|
B|----6(6)--6(6)--6(6)--6(6)--|--6(6)--6(6)--6(6)--6(6-------|
G|----5b7---5b7---5b7---5b7---|--5b7---5b7---5b7---5b7-------|
D|----------------------------|------------------------------|
A|----------------------------|------------------------------|
E|----------------------------|------------------------------|




e|----------------------------|------------------------------|
B|----3-----------------------|------------------------------|
G|----4-----------------------|------------------------------|
D|----------------------------|------------------------------|
A|----------------------------|------------------------------|
E|----------------------------|------------------------------|


                    bss
      G7
e|------------------------|-----------------3----------|
B|------------------------|-----------3--5-----3--5p3--|
G|----5b7--3--5-----3-----|------3h4-------------------|
D|---------------5-----5--|-(5)------------------------|
A|------------------------|----------------------------|
E|------------------------|----------------------------|


         bss        bss
      G7
e|---------------------|---------3------------6--8--|
B|---------------------|------3-----6/8--(8)--------|
G|----5--3----------3--|----------------------------|
D|----------5p3--5-----|----------------------------|
A|---------------------|----------------------------|
E|---------------------|----------------------------|


      bss  ~~~~   bss
      C7
e|----6-----------6--|---------6--8b10-(10)--8--6--8--|
B|---------8---------|------8-------------------------|
G|-------------------|--------------------------------|
D|-------------------|--------------------------------|
A|-------------------|--------------------------------|
E|-------------------|--------------------------------|


      bss  ~~~~~~    bss
      G7
e|----6--------------6--|--------------3-------------------|
B|---------8----8-------|-----------3-----6p3--------------|
G|----------------------|------5b7-------------5b7r5p3-----|
D|----------------------|-------------------------------5--|
A|----------------------|----------------------------------|
E|----------------------|----------------------------------|


         bss                                          bss~~~~
      D7                           C7
e|------------------------------|---------------------------|
B|------------------------6--6--|--6--6--6------------------|
G|----5--3-----------5/7--------|-----------7\5p3--5--3-----|
D|----------5--3--5-------------|------------------------5--|
A|------------------------------|---------------------------|
E|------------------------------|---------------------------|


      pb                  pb                bss               bss
      G7  NC
e|---------------------------------------|-----------------------|
B|---------------------------------------|-----------------------|
G|---(5b)7r5--3-----3--5-(5b)7--5--3--5--|--3--------------------|
D|---------------5-----------------------|-----5p3---------------|
A|---------------------------------------|----------5\3p1--3--1--|
E|---------------------------------------|-----------------------|


                                          co
      G7
e|---------------------------|----------------------------------|
B|---------------------------|----------------------------------|
G|---------------------------|-------------------3--5--3-----3--|
D|---------------------3--5--|--3-----3--5--3h5-----------5-----|
A|-------1--3--1--3/5--------|-----5----------------------------|
E|----3----------------------|----------------------------------|


                            bss
      G7
e|------------3-------------------|------------------------------|
B|---------3-----6p3-----3--------|------------------------------|
G|----5b7-------------5-----3-----|---------3--5b7-(7)--5--3--5--|
D|-----------------------------5--|-(5)--5-----------------------|
A|--------------------------------|------------------------------|
E|--------------------------------|------------------------------|


      bss  ~~~~   bss                    ~~~~
      C7
e|-----------------------|---------3------------6--|
B|-----------------------|------3-----6/8--(8)-----|
G|----3-----------3------|-------------------------|
D|---------5-------------|-------------------------|
A|-----------------------|-------------------------|
E|-----------------------|-------------------------|


           ~~~~ bss                                     bss
      G7
e|----8p6-------6----------|--------------3----------------|
B|---------8---------------|-----------3-----6p3-----3-----|
G|-------------------------|------5b7-------------5-----3--|
D|-------------------------|-------------------------------|
A|-------------------------|-------------------------------|
E|-------------------------|-------------------------------|


          co                                       bss
      D7                        C7
e|---------------------------|--------------------------------|
B|---------------------6--6--|--6--6--6--------------------6--|
G|-------3--5--3--5/7--------|-----------7/5p3--5--3--5/7-----|
D|----5----------------------|--------------------------------|
A|---------------------------|--------------------------------|
E|---------------------------|--------------------------------|


                                  co       rpb        rpb        rpb
      G7  NC
e|----------------------------|---------------------------------------|
B|----8-----6-------8--10-----|--8--11b13-(13)-11b13-(13)-11b13-(13)--|
G|-------7-----7/9---------9--|---------------------------------------|
D|----------------------------|---------------------------------------|
A|----------------------------|---------------------------------------|
E|----------------------------|---------------------------------------|


             rpb        rpb        rpb        rpb
      C7
e|-------------------------------------------------|
B|----11b13-(13)-11b13-(13)-11b13-(13)-11b13-(13)--|
G|-------------------------------------------------|
D|-------------------------------------------------|
A|-------------------------------------------------|
E|-------------------------------------------------|


             rpb        rpb  rpb
      C7
e|--------------------------------------------|
B|----11b13-(13)-11b13-(13)-(13)r11p8--10-----|
G|-----------------------------------------9--|
D|--------------------------------------------|
A|--------------------------------------------|
E|--------------------------------------------|


       co                      co    ~~~~~
      G7
e|--------------------10---------|-------------------------|
B|----8--10p8--10b12------10b12--|--8----(8)--------11-13--|
G|-------------------------------|------------9/12---------|
D|-------------------------------|-------------------------|
A|-------------------------------|-------------------------|
E|-------------------------------|-------------------------|


      bss          ~~~bss
      C7
e|------------------------|----------------------------------------|
B|----11--------------11--|----------11--13b15------13--11--13b15--|
G|--------12--10--12------|------12--------------------------------|
D|------------------------|----------------------------------------|
A|------------------------|----------------------------------------|
E|------------------------|----------------------------------------|


                   ~~~~~~~~~~~                co     co
      D7
e|------------------------|-----------------------------|
B|---(15)------13b15------|-(15)----------18b20--18b20--|
G|------------------------|-----------------------------|
D|------------------------|-----------------------------|
A|------------------------|-----------------------------|
E|------------------------|-----------------------------|


          ~~~~~                                                           bss
      G7
e|-------------------15---------|-------------15------------------------------|
B|----18b20--------------18p15--|---------15------18p15-----------------------|
G|------------------------------|--17b19-----------------17b19r17p15--17--15--|
D|------------------------------|---------------------------------------------|
A|------------------------------|---------------------------------------------|
E|------------------------------|---------------------------------------------|


                     ~~~~
      G7
e|------------------------|-------------------------------------|
B|------------------------|---------15-15-15-15-15-15-15-15-15--|
G|----------15--17--15----|--17b19------------------------------|
D|----17------------------|-------------------------------------|
A|------------------------|-------------------------------------|
E|------------------------|-------------------------------------|



      C7
e|--------------------------------------------------|
B|----------15-18p15-------15-18p15-------15-18p15--|
G|----17b19----------17b19----------17b19-----------|
D|--------------------------------------------------|
A|--------------------------------------------------|
E|--------------------------------------------------|



      C7
e|--------------------------------------------------|
B|----------15-18p15-------15-18p15-------15-18p15--|
G|----17b19----------17b19----------17b19-----------|
D|--------------------------------------------------|
A|--------------------------------------------------|
E|--------------------------------------------------|



      G7
e|--------------------------------------------------|
B|----------15-18p15-------15-18p15-------15-18p15--|
G|----17b19----------17b19----------17b19-----------|
D|--------------------------------------------------|
A|--------------------------------------------------|
E|--------------------------------------------------|



      G7
e|--------------------------------------------------|
B|----------15-18p15-------15-18p15-------15-18p15--|
G|----17b19----------17b19----------17b19-----------|
D|--------------------------------------------------|
A|--------------------------------------------------|
E|--------------------------------------------------|


                                         bss
      D7
e|------------------------------------------|
B|----------15-18p15------------------------|
G|----17b19----------17b19-----17p15-17-15--|
D|------------------------------------------|
A|------------------------------------------|
E|------------------------------------------|



      C7
e|----------------------------------------|
B|----------------------------------------|
G|----------------------------------------|
D|----17--15--------------------------15--|
A|------------17/15p13--15p13--15/17------|
E|----------------------------------------|


                     bss      bss       bss
      G7  NC
e|-----------------------------------|-----------------------------|
B|-----------------------------------|-----------------------------|
G|-------------------15------15--17--|--15--------------15--17b19--|
D|----17-----15--17------17----------|------17--15--17-------------|
A|-------17--------------------------|-----------------------------|
E|-----------------------------------|-----------------------------|


                       bss  ~~~~
      G7
e|-----------------------------|-----------------15-------------|
B|-----------------------------|-------------15------15--18p15--|
G|---(19)--17--15--17--15------|------17b19---------------------|
D|-------------------------17--|--------------------------------|
A|-----------------------------|--------------------------------|
E|-----------------------------|--------------------------------|


              mu        ~~~~ bss                     co     co     co
      G7
e|-----------------------------------|----------18b20--18b20--18b20--|
B|-----------------------------------|------15-----------------------|
G|----17p15------------------15------|-------------------------------|
D|-----------(17)--15--17------------|-------------------------------|
A|-----------------------------------|-------------------------------|
E|-----------------------------------|-------------------------------|


       ~~~~~
      C7
e|----18----15---(15)----------15--|-----------15----------------15--------------|
B|-------------18p15--------15-----|--18b20-------18p15-------15----18p15--------|
G|--------------------17b19--------|--------------------17b19-------------17b19--|
D|---------------------------------|---------------------------------------------|
A|---------------------------------|---------------------------------------------|
E|---------------------------------|---------------------------------------------|


                  bss    bss
      G7
e|---------------------------|---------------------------------------|
B|---------------------------|---------------------------------------|
G|---r17p15--17--15------15--|----------15-17b19-(19)--17--15-17b19--|
D|-------------------17------|------17-------------------------------|
A|---------------------------|---------------------------------------|
E|---------------------------|---------------------------------------|



      D7                                   
e|--------------------------------------------|
B|--------------------------------------------|
G|---(19)--17--15--17b19-(19)--17--15--17b19--|
D|--------------------------------------------|
A|--------------------------------------------|
E|--------------------------------------------|



      C7
e|--------------------------------------------|
B|--------------------------------------------|
G|---(19)--17--15--17b19-(19)--17--15--17b19--|
D|--------------------------------------------|
A|--------------------------------------------|
E|--------------------------------------------|


               bss     bss     bss        bss     bss     bss
      G7  NC
e|-------------------------------------|--------------------------|
B|-------------------------------------|--------------------------|
G|---(19)--17--15--17--15--17--15--17--|--15--17--15--17--15------|
D|-------------------------------------|----------------------17--|
A|-------------------------------------|--------------------------|
E|-------------------------------------|--------------------------|


                        ~~~~~
      G7
e|-----------------------------|-----------------15-------------|
B|-----------------------------|-------------15------15--18p15--|
G|-------------15--17--15------|------17b19---------------------|
D|---(17)--17------------------|--------------------------------|
A|-----------------------------|--------------------------------|
E|-----------------------------|--------------------------------|


                         bss                ~~~~~~~~~~~~~~~~~~
      G7
e|---------------------------|---------3----------------------|
B|---------------------------|------3-----6/8----(8)----------|
G|----17p15--------------15--|--------------------------------|
D|-----------17--15--17------|--------------------------------|
A|---------------------------|--------------------------------|
E|---------------------------|--------------------------------|


    ~~~                              co
      C7
e|---------------------------|---6-----------------8b10----(10)r8--|
B|---(8)---------------------|------8------------------------------|
G|---------------------------|-------------------------------------|
D|---------------------------|-------------------------------------|
A|---------------------------|-------------------------------------|
E|---------------------------|-------------------------------------|


               ~~~~~
      G7
e|----6----------------------|------------------------10b13--|
B|-------8----(8)------------|-----------8--10-----8---------|
G|---------------------------|------7/9---------9------------|
D|---------------------------|-------------------------------|
A|---------------------------|-------------------------------|
E|---------------------------|-------------------------------|


                                    co  co pb               co
      D7                           C7
e|---(13)--10--8----------------|---------------------------------|
B|----------------11--8--10-----|--8--10-(10b)11p10--8-----8------|
G|---------------------------9--|-----------------------9---------|
D|------------------------------|---------------------------------|
A|------------------------------|---------------------------------|
E|------------------------------|---------------------------------|


             rpb        rpb        rpb        rpb
      G7  NC
e|-------------------------------------------------|
B|----11b13-(13)-11b13-(13)-11b13-(13)-11b13-(13)--|
G|-------------------------------------------------|
D|-------------------------------------------------|
A|-------------------------------------------------|
E|-------------------------------------------------|


             rpb        rpb        rpb        rpb
      G7
e|-------------------------------------------------|
B|----11b13-(13)-11b13-(13)-11b13-(13)-11b13-(13)--|
G|-------------------------------------------------|
D|-------------------------------------------------|
A|-------------------------------------------------|
E|-------------------------------------------------|


                                        bss   co
      C7
e|-----------------------------------|-----------------------------|
B|---r11--8--10-----8--------11--13--|--11------13b15--13--11--13--|
G|---------------9-----9/12----------|------12---------------------|
D|-----------------------------------|-----------------------------|
A|-----------------------------------|-----------------------------|
E|-----------------------------------|-----------------------------|


      bss    ~~~~   bss
      G7
e|--------------------------|-------------------------------|
B|----11------------11------|----------13b15--13b15--13b15--|
G|----------12--------------|------12-----------------------|
D|--------------------------|-------------------------------|
A|--------------------------|-------------------------------|
E|--------------------------|-------------------------------|


           ~~~~~
      C7
e|--------------------------|-----13----------------------|
B|----13b15----(15)----13b--|-15-----13b15--13b15--13b15--|
G|--------------------------|-----------------------------|
D|--------------------------|-----------------------------|
A|--------------------------|-----------------------------|
E|--------------------------|-----------------------------|


          ~~~~~~~~~~~~~~~~~~~~~~
      D7
e|--------------------------|--------------------------------|
B|----13b15-----------------|-(15)------18b20--18b20--18b20--|
G|--------------------------|--------------------------------|
D|--------------------------|--------------------------------|
A|--------------------------|--------------------------------|
E|--------------------------|--------------------------------|


          ~~~~                                                 bss
      G7
e|-------------15---------|-----------15--------------------------|
B|----18b20--------18p15--|--------15----18p15--------------------|
G|------------------------|--17b19-------------17b19r17p15-17-15--|
D|------------------------|---------------------------------------|
A|------------------------|---------------------------------------|
E|------------------------|---------------------------------------|


                  bss
      G7
e|--------------------|--------------------------------------|
B|--------------------|--------------------------------------|
G|--------15--17--15--|----------15--17b19-(19)--17--15--17--|
D|----17--------------|------17------------------------------|
A|--------------------|--------------------------------------|
E|--------------------|--------------------------------------|

                                           co      co      co  co  co
      bss     bss     bss     bss        bss     bss     bss
      C7
e|------------------------------------|------------------------------|
B|------------------------------------|------------------------------|
G|----15--17--15--17--15--17--15--17--|--15--17--15--17--15--17--15--|
D|------------------------------------|------------------------------|
A|------------------------------------|------------------------------|
E|------------------------------------|------------------------------|


        co        bss                                       bss
      G7
e|-----------------------------|---------15----------------------------|
B|-----------------------------|-----15------18p15------15-------------|
G|----17--15------15------17b--|-19-----------------17------15---------|
D|------------17---------------|--------------------------------17p15--|
A|-----------------------------|---------------------------------------|
E|-----------------------------|---------------------------------------|


                  bss   co                                       bss
      D7                          C7
e|-----------------------------|-------------------------------------|
B|-----------------------------|-------------------------------------|
G|--------15--17--15-----------|--------------------------15h17--15--|
D|----17-----------------------|-----15h17p15------15h17-------------|
A|--------------------17--15h--|-17------------17--------------------|
E|-----------------------------|-------------------------------------|


                              bss                   co
      G7  NC
e|-------------15-----------------------|-------------------------------|
B|----------15----18p15----15-----------|-------------------------------|
G|----17b19-------------17----15--------|------15h17------15--(15)\-----|
D|-------------------------------17p15--|--17---------------------------|
A|--------------------------------------|-------------------------------|
E|--------------------------------------|-------------------------------|


               co     ~~~~ co                co     ~~~~ co
      G7
e|-------------------------------|-----------------------------|
B|-------------------------------|-----------------------------|
G|-------------------------------|-----------------------------|
D|-------------------------------|-----------------------------|
A|------------7------8----7------|----------7------8----7------|
E|-------------------------------|-----------------------------|


               co     ~~~~ co            mu  co     ~~~~ co
      G7
e|-------------------------------|-----------------------------|
B|-------------------------------|-----------------------------|
G|-------------------------------|-----------------------------|
D|-------------------------------|-----------------------------|
A|------------7------8----7------|-------x--7------8----7------|
E|-------------------------------|-----------------------------|



      C7
e|----------------------------|----------------------------|
B|----------------------------|----------------------------|
G|----------------------------|----------------------------|
D|----------------5--5--------|----------------5--5--------|
A|----3--3--7--7--------7--7--|--3--3--5/7--7--------7--7--|
E|----------------------------|----------------------------|


           mu  co    ~~~~  co           mu   co    ~~~~  co
      G7
e|-------------------------------|-----------------------------|
B|-------------------------------|-----------------------------|
G|-------------------------------|-----------------------------|
D|-------------------------------|-----------------------------|
A|---------x--7------8----7------|-------x--7------8----7------|
E|-------------------------------|-----------------------------|


                   bss                      bss
      D7                       C7
e|--------------------------|-------------------------|
B|--------------------------|-------------------------|
G|---------7-------5--------|-------5-------3---------|
D|------------7---------7\--|----------5---------5p3--|
A|----5---------------------|--3----------------------|
E|--------------------------|-------------------------|


        co
      G7
e|--------------------------|-------------------------|
B|--------------------------|-------------------------|
G|--------------------------|-------------------------|
D|-----5--------------------|-------------------------|
A|--------------------------|-------------------------|
E|--------------------------|-------------------------|


                     bss   co    ~~~co
      G7
e|---------------------------|---------------------|
B|---------------------------|---------------------|
G|-----------3--5----3-------|-----3----5--3--5b7--|
D|--------5---------------5--|--5------------------|
A|---------------------------|---------------------|
E|---------------------------|---------------------|


      bss         ~~~~~~~~~~                  ~~~~~~~
      G7
e|----------------------|---------3------------------|
B|----------------------|------3-----6/8----(8)------|
G|----3-----------------|----------------------------|
D|---------5--3--5------|-(5)------------------------|
A|----------------------|----------------------------|
E|----------------------|----------------------------|


    ~~~~~~~~~~~~             ~~~~~~~~~~
      C7
e|-----------------------|-----------------------|
B|---(8)------(8)--8/11--|-(11)------(11)--------|
G|-----------------------|-----------------------|
D|-----------------------|-----------------------|
A|-----------------------|-----------------------|
E|-----------------------|-----------------------|

           slow
             ~~~~~~
      G7
e|-----------------------|------------------------------------------|
B|----11/13b15-----------|------------------------------------------|
G|-----------------------|----------15--17b19--(19)--17--15--17b19--|
D|-----------------------|------17----------------------------------|
A|-----------------------|------------------------------------------|
E|-----------------------|------------------------------------------|


                                                                       bss
      D7                          C7
e|-----------------------------|--15--------------------15-----------------|
B|----------------------18b20--|------18p15---------15------18p15----------|
G|---(19)--17b19---------------|-------------17b19-----------------17--15--|
D|-----------------------------|-------------------------------------------|
A|-----------------------------|-------------------------------------------|
E|-----------------------------|-------------------------------------------|



      G7  NC
e|-----------------------------|-------------------------------------------|
B|-----------------------------|-------------------------------------------|
G|-----------------------------|-------------------------------------------|
D|----17\----------------------|-------------------------------------------|
A|-----------------------------|-------------------------------------------|
E|-----------------------------|-------------------------------------------|


                   bss                      bss   co
      D7                       C7
e|--------------------------|---------------------------|
B|--------------------------|---------------------------|
G|---------7-------5--------|-------5-------3-----------|
D|------------7---------7\--|----------5---------5------|
A|----5---------------------|--3------------------------|
E|--------------------------|---------------------------|


           pb           bss                         bss  co
      G7  NC
e|---------------------------------|-----------------------|
B|---------------------------------|-----------------------|
G|--------(5b)7r5p3-----3----------|-----------------------|
D|-------------------5-------5--3--|-----------------------|
A|---------------------------------|--5\3p1--3--1--(1)-----|
E|---------------------------------|--------------------3--|


                   bss                      bss
      D7                       C7
e|--------------------------|---------------------------|
B|--------------------------|---------------------------|
G|---------7-------5--------|-------5-------3-----------|
D|------------7---------7\--|----------5---------5\-----|
A|----5---------------------|--3------------------------|
E|--------------------------|---------------------------|



      NC                                         G
e|--------------------------|---------------------------|
B|--------------------------|--------------------3------|
G|--------------------------|--------------------4------|
D|--------------------------|--------------------5------|
A|--------------------------|--------------------5------|
E|--------------------------|--------------------3------|




/    slide up
\    slide down
h    hammer-on
p    pull-off
mu   mute
pb   pre-bend
co   cut off
bss  bend slightly sharp
~~   vibrato
NC   no chord


=====================================================================  26 August 2011
Добавлено: 16.03.2012
Другие материалы по этой песне:
  • Аккорды и текст

Страница создана 16.03.2012
http://primanota.ru/john-mayall-and-the-bluesbreakers/driving-sideways-chords.htm
Привет, Гость.
Предлагаем пройти революционный курс по гитаре.
Подарок от PrimaNota.Ru, забирай!