PrimaNota.ru - самый крупный в мире бесплатный архив песенных текстов, аккордов, табулатур и нот


John Mayall And The Bluesbreakers - The Supernatural - таба, видео

Регистрация Запомнить меня
Войти через:  Facebook Google Twitter Vk Yandex Mail.ru

John Mayall And The Bluesbreakers - The Supernatural - таба, видео

Печатать
Просмотров: 51
Уроки эстрадного вокала в Санкт-Петербурге
-----------------------------------------------------------------
       The Supernatural - John Mayall And The Bluesbreakers
-----------------------------------------------------------------

Tabbed By : Aeonoptic
e-mail: aeonoptic@gmail.com

Tuning: E Standard

Based around Dm7, Gm7 and Am7. Barlines may be in the wrong place but its otherwise pretty accurate. 

(organ anacrusis)
E|13~~~|~~~~|~~~~|~~~~|(13)\----|---------------------|----------------|-------|----------------|
B|-----|----|----|----|---------|---------------------|--------13p10---|-10----|-13b15-13-10----|
G|-----|----|----|----|---------|12br14p10-12-10-12-10|-12b14~-------12|-----12|-------------12-|
D|-----|----|----|----|---------|---------------------|----------------|-------|----------------|
A|-----|----|----|----|---------|---------------------|----------------|-------|----------------|
E|-----|----|----|----|---------|---------------------|----------------|-------|----------------|

E|--------------|------/10-13|13b15-13-10-------------|---------------------|------------------|
B|--------------|------------|------------10----10----|---------------------|13p10-------------|
G|12b14-12-10-12|-10---------|---------------12----12-|12h14-12--12-10----10|------10h12-10--12|
D|--------------|----12------|------------------------|----------------12---|------------------|
A|--------------|------------|------------------------|---------------------|------------------|
E|--------------|------------|------------------------|---------------------|------------------|

E|-----------------------------------------|17~~~|~~~~|~~~~|~~~~|(17)\---|
B|13p10------------------------------------|-----|----|----|----|--------|
G|------10-12-10---------------------------|-----|----|----|----|--------|
D|---------------12p10---------------------|-----|----|----|----|--------|
A|---------------------10-8-10-8----8--12~-|-----|----|----|----|--------|
E|-------------------------------10--------|-----|----|----|----|--------|

E|------------------------------|---------------------------|15br17p13-------------------------------|
B|13b15-13-10-------------------|---------------------------|----------15-15--15-13------------------|
G|------------12-10-------------|---------------------------|-----------------------12h14-12-10----10|
D|------------------10h12-10----|10h12-10----------------10-|-----------------------------------12---|
A|---------------------------12-|---------12p10\8--10/12----|----------------------------------------|
E|------------------------------|---------------------------|----------------------------------------|

E|-------------|-13b15-13b15-13-10----|----------------------|---------------------|
B|13-10-13b15~-|-------------------10-|-13b15-13-10----------|---------------------|
G|-------------|----------------------|-------------12-10-12-|12br14p10-12-10------|
D|-------------|----------------------|----------------------|----------------10-12|
A|-------------|----------------------|----------------------|---------------------|
E|-------------|----------------------|----------------------|---------------------|

E|-------------|20~~~|~~~~|~~~~|~~~~|(20)\---|----------------------------------------|
B|-------------|-----|----|----|----|--------|13b15-10-13b15-10-----------------------|
G|12-10--------|-----|----|----|----|--------|------------------12p10-12br14p10-12-10-|
D|------10-----|-----|----|----|----|--------|----------------------------------------|
A|---------12~-|-----|----|----|----|--------|----------------------------------------|
E|-------------|-----|----|----|----|--------|----------------------------------------|

E|------------------|-----------------------|-15br17p13-15-13----------13h15-13-|
B|------13----------|-----------------------|-----------------15p13-15----------|
G|12b14----12-10h12-|10---------------------|-----------------------------------|
D|------------------|----10----10-------10--|-----------------------------------|
A|------------------|-------12----12~-------|-----------------------------------|
E|------------------|-----------------------|-----------------------------------|

E|13b15-13-10----------------10-----------------------------|-------------|13b15-13-10------------------------|
B|------------10----------------10--------------------------|13-10-13b15~~|------------10---------------------|
G|---------------12-10-12b14-------10-12p10----12-10----10--|-------------|---------------12-10---------------|
D|------------------------------------------12-------12-----|-------------|---------------------12------------|
A|----------------------------------------------------------|-------------|------------------------10/12-8---8|
E|----------------------------------------------------------|-------------|--------------------------------10-|
 
E|-----------|22~~~|~~~~|~~~~|~~~~|(22)\---|10----------------|------------------|--------------|
B|-----------|-----|----|----|----|--------|---10-------------|------------------|13p10----10---|
G|-----------|-----|----|----|----|--------|------12h14-10----|10-12-10--12b14~~-|------12----12|
D|------10---|-----|----|----|----|--------|---------------12-|------------------|--------------|
A|10h12----12|-----|----|----|----|--------|------------------|------------------|--------------|
E|-----------|-----|----|----|----|--------|------------------|------------------|--------------|
 
E|15b17-15-13h15-13~~-|13b15-13-10----10-13-|18b20-18-15-------------------------|
B|--------------------|------------10-------|------------18b20-18-18b20-18b20-18~|
G|--------------------|---------------------|------------------------------------|
D|--------------------|---------------------|------------------------------------|
A|--------------------|---------------------|------------------------------------|
E|--------------------|---------------------|------------------------------------|
                      
                      rake
E|15br17p13-------13-|--10----------------------------|------------|-------13-|
B|----------15-15----|-X---13-10----------------------|15p13----13-|/15~~~----|
G|-------------------|X----------12-12br14p10-12-10---|------12----|----------|
D|-------------------|------------------------------12|------------|----------|
A|-------------------|--------------------------------|------------|----------|
E|-------------------|--------------------------------|------------|----------|
 
E|15b17----13-15-15b17-15-13~-|13b15-13-10-----------------------------------|10~--|
B|------15--------------------|------------10---------------10---------------|10~--|
G|----------------------------|---------------12b14-12-10------10-10h12-10---|10~--|
D|----------------------------|---------------------------12---------------12|-----|
A|----------------------------|----------------------------------------------|-----|
E|----------------------------|----------------------------------------------|-----|

| /  slide up
| \  slide down
| h  hammer-on
| p  pull-off
| ~  vibrato
| +  harmonic
| x  Mute note

Добавлено: 25.11.2015
Другие материалы по этой песне:

Страница создана 31.10.2014
http://primanota.ru/john-mayall-and-the-bluesbreakers/supernatural-chords.htm
Привет, Гость.
Предлагаем пройти революционный курс по гитаре.
Подарок от PrimaNota.Ru, забирай!