PrimaNota.ru - самый крупный в мире бесплатный архив песенных текстов, аккордов, табулатур и нот


John Frusciante - Bedroom Lick - таба, видео

Регистрация Запомнить меня
Войти через:  Facebook Google Twitter Vk Yandex Mail.ru

John Frusciante - Bedroom Lick - таба, видео

Печатать
Просмотров: 226
-------------------------------------------------------------------------------
	      Bedroom Lick VPRO Documentary - John Frusciante
-------------------------------------------------------------------------------
Tabbed by: Gareth Le Tourner
Email: garethnegrel@free.fr

Tuning: Half Step Down

Legend:
Tablature Legend:
v: vibrato
/ : slide
x : mute string
h : hammer on
p : pull off
d: down strumming
u: up strumming
..Chord name.. : it means that the chord or whatever I note in the tab as to be maintain 
the lick (hammer on, pull off, simple note)


1st part:

         ..Em...    ...D...        .........C........
e|--------x--x--x----x--x--x--------x-----x----x-x-x-x------------|
B|--------8--8--8----7--7--7--------5-----5----5-5-5-5------------|
G|--------7--7--7----7--7--7--7h9---5-----5----5-5-5-5------------|
D|--------x--x--x----7--7--7--------5-----5----5-5-5-5------------|
A|--5/7v--7--7--7----x--x--x--------x-----5----x-x-x-x--------5h7-|
E|-------------------------------------5-------------------5h7----|
         d  d  u    d  d  u        d     d    u u d u

2nd part:

        Em           ..D..  ..C..
e|---------------------------------------------------|
B|--------8--------------7------5--------------------|
G|--------9--------------7------5--------------------|
D|--------9--------------7------5----------5--5h7----|
A|--5/7v--7--7--9/10--5------3------3--5/7--7-----7--|
E|---------------------------------------------------|
         d              d      d

3rd part:

         Em     ...D...    ...C...
e|--------x------------------------------------------|
B|--------8v-----7-7h10p7---5---5-5-------8----------|
G|--------7v-----7-7--------5---5-5---5b7---5h7p5----|
D|--------x------7-7--------5---5-5---------------7v-|
A|--0/7---x------x-x--------x---x-x------------------|
E|------------7--------------------------------------|
         d      d d        d   d d

4th part:

         .....Bm.....     .............C.............   Em
e|----------------------------------------------------------|
B|--------7-------7--7----------8---------8----------8v---8-|
G|--------7---7-7----7----------9h10p9----9h10p9-----9v---9-|
D|--------9---9----9-9-------10--------10--------10--10v--9-|
A|--------9-9-9------9--9/10--------------------------------|
E|--5/7-----------------------------------------------------|
         d   d      d          ..d..     ..d..       d   d
Добавлено: 01.07.2013
Другие материалы по этой песне:
  • Аккорды и текст

Страница создана 01.07.2013
http://primanota.ru/john-frusciante/bedroom-lick-chords.htm
Привет, Гость.
Предлагаем пройти революционный курс по гитаре.
Подарок от PrimaNota.Ru, забирай!