PrimaNota.ru - самый крупный в мире бесплатный архив песенных текстов, аккордов, табулатур и нот


John Frusciante - Heaven - аккорды и текст, таба, бас-таба, видео

Регистрация Запомнить меня
Войти через:  Facebook Google Twitter Vk Yandex Mail.ru

John Frusciante - Heaven - аккорды и текст, таба, бас-таба, видео

Печатать
Просмотров: 367
Heaven
John Frusciante
  This song is easy to play...
  only the intro is little tricky

Have fun                      / = Slide Up         p = pull off
                              \ = Slide Down       } = pull the string
                              # = let it sound
                              h = hammer on


INTRO:  (Don't strum everything only once, it's not the exact rhytm)

    Am
E---5--------5----------5---7--7/8--5--------0-5-------3}-5-----------|
A---7--7-----7--7-------7---7--7----7--7-------7--7-------7--7--------|
D---7--7--7--7--7--7----7#----------7--7--7----7--7--7----7--7--------|
G------5--5-----5--5----5#----------5--5--5----5--5--7----5--5--------|
H---------5-----5--5----5#-------------5--5----5--5--5-------5--------|
E---------5--------5----5#----------------5----------5----------------|


VERSE:   (The ryhtm is not difficult to figure out)


    Dm  Am   Dm  Am   Dm  Am   Dm    B C Dm
E---5---5----5---5----5---5----5---------5-----------------------------|
H---6---5----6---5----6---5----6-----3-5-6-----------------------------|
G---7---5----7---5----7---5----7-----3-5-7-----------------------------|
D---7---7----7---7----7---7----7-----3-5-7-----------------------------|
A---5---7----5---7----5---7----5-----1-3-5-----------------------------|
E-------5--------5--------5--------------------------------------------|

    Dm  Am   Dm  Am   Dm  Am   Dm    Dm C B   B  F  Gm Dm
E---5---5----5---5----5---5----5-----5-----------1--3--5---------------|
H---6---5----6---5----6---5----6-----6--5-3---3--1--3--6---------------|
G---7---5----7---5----7---5----7-----7--5-3---3--2--3--7---------------|
D---7---7----7---7----7---7----7-----7--5-3---3--3--5--7---------------|
A---5---7----5---7----5---7----5-----5--3-1---1--3--5--5------3-5-3-5--|
E-------5--------5--------5----------------------1--3------3/5---------|

    Dm  Am   Dm  Am   Dm  Am   Dm    B C Dm
E---5---5----5---5----5---5----5---------5-----------------------------|
H---6---5----6---5----6---5----6-----3-5-6-----------------------------|
G---7---5----7---5----7---5----7-----3-5-7-----------------------------|
D---7---7----7---7----7---7----7-----3-5-7-----------------------------|
A---5---7----5---7----5---7----5-----1-3-5-----------------------------|
E-------5--------5--------5--------------------------------------------|

    Dm  Am   Dm  Am   Dm  Am   Dm    Dm C B   B  F  Gm Dm
E---5---5----5---5----5---5----5-----5-----------1--3--5---------------|
H---6---5----6---5----6---5----6-----6--5-3---3--1--3--6---------------|
G---7---5----7---5----7---5----7-----7--5-3---3--2--3--7---------------|
D---7---7----7---7----7---7----7-----7--5-3---3--3--5--7---------------|
A---5---7----5---7----5---7----5-----5--3-1---1--3--5--5---------------|
E-------5--------5--------5----------------------1--3------------------|

    Dm C B   B  F  Gm Dm
E---5-----------1--3--5-------------------|
H---6--5-3---3--1--3--6-------------------|
G---7--5-3---3--2--3--7-------------------|
D---7--5-3---3--3--5--7----------3--------|
A---5--3-1---1--3--5--5------3-5---5-3-5--|
E------------------1--3---3/5-------------|


Now it's reapeating but not exactly the same thing
Here is the right tab :

VERSE 2:


    Dm  Am   Dm  Am   Dm  Am   Dm    B C Dm
E---5---5----5---5----5---5----5---------5-----------------------------|
H---6---5----6---5----6---5----6-----3-5-6-----------------------------|
G---7---5----7---5----7---5----7-----3-5-7-----------------------------|
D---7---7----7---7----7---7----7-----3-5-7-----------------------------|
A---5---7----5---7----5---7----5-----1-3-5-----------------------------|
E-------5--------5--------5--------------------------------------------|

    Dm  Am   Dm  Am   Dm  Am   Dm    Dm C B   B  F  Gm Dm
E---5---5----5---5----5---5----5-----5-----------1--3--5---------------|
H---6---5----6---5----6---5----6-----6--5-3---3--1--3--6---------------|
G---7---5----7---5----7---5----7-----7--5-3---3--2--3--7---------------|
D---7---7----7---7----7---7----7-----7--5-3---3--3--5--7---------------|
A---5---7----5---7----5---7----5-----5--3-1---1--3--5--5---------------|
E-------5--------5--------5----------------------1--3------------------|

    B  F  Gm Dm
E------1--3--5---------------|
H---3--1--3--6---------------|
G---3--2--3--7---------------|
D---3--3--5--7---------------|
A---1--3--5--5---------------|
E------1--3------------------|


BRIDGE:
(In the beginning there is no guitar, it's beginning at "Well I don't...")

    B  F  Gm
E------1--3-------------|
H---3--1--3-------------|
G---3--2--3-------------|
D---3--3--5-------------|
A---1--3--5-------------|
E------1--3-------------|

Play this till the end...
but be careful the rhythm is not always the same


Hope you like it    CHILIPEPPER.
Добавлено: 22.02.2012
Другие материалы по этой песне:
  • Аккорды и текст

Страница создана 22.02.2012
http://primanota.ru/john-frusciante/heaven-chords.htm
Привет, Гость.
Предлагаем пройти революционный курс по гитаре.
Подарок от PrimaNota.Ru, забирай!