PrimaNota.ru - самый крупный в мире бесплатный архив песенных текстов, аккордов, табулатур и нот


John Frusciante - Before The Beginning - таба, видео

Регистрация Запомнить меня
Войти через:  Facebook Google Twitter Vk Yandex Mail.ru

John Frusciante - Before The Beginning - таба, видео

Печатать
Просмотров: 287
-------------------------------------------------------------------------------
			     Before the Beginning - John Frusciante
-------------------------------------------------------------------------------
Tabbed by: floke
Email: 4bhdv@gmx.at

Tuning: standard

e|--11b---11b--------10--10---------11b------------------------------12b-----|
B|--------------12-----------12-------------------13----12p13p12-------------|
G|---------------------------------------------------------------------------|
D|--------------------------------------12----14-----------------------------|
A|---------------------------------------------------------------------------|
E|---------------------------------------------------------------------------|

e|-10--10----------12-------------------10-----------------12b---10---18b----|
B|---------12---------------------13----------12b---12-----------------------|
G|---------------------------------------------------------------------------|
D|----------------------12---14----------------------------------------------|
A|---------------------------------------------------------------------------|
E|---------------------------------------------------------------------------|

e|--10---12---19b---19p20p19---18b--16--17--17--15---17-----------21b--20----|
B|-------------------------------------------------------15--17--------------|
G|---------------------------------------------------------------------------|
D|---------------------------------------------------------------------------|
A|---------------------------------------------------------------------------|
E|---------------------------------------------------------------------------|

e|-19--------------------------------------------11b--11b---11b------10--10--|
B|---------------------------------------------------------------12----------|
G|---------------------------------------------------------------------------|
D|---------14----12--12--11--10--------9-------------------------------------|
A|---------------------------------10-----10---------------------------------|
E|---------------------------------------------------------------------------|

e|---------10----------------------------------------------------------------|
B|---12-------------------12b--------12b-------------------------------------|
G|------------------------------12--------12---11---14---12----16------------|
D|-------------12---14---------------------------------------------12---14---|
A|---------------------------------------------------------------------------|
E|---------------------------------------------------------------------------|

e|---------------------------------------------------------------------------|
B|--12b----------------------------------------------------------------16----|
G|-------12---------------------------------------12/16--16---15p18p19-------|
D|----------------------8b-----------12--11--10------------------------------|
A|---------------------------10----------------------------------------------|
E|---------------0-----------------------------------------------------------|

e|--------------------------------------------------------------------13b----|
B|----------16-------------16------------16-----------16--------16-----------|
G|--15p18p19------15p18p19------15p18p19------15p18p19----15p18p-------------|
D|---------------------------------------------------------------------------|
A|---------------------------------------------------------------------------|
E|---------------------------------------------------------------------------|

e|---------------------------------------------------------------------------|
B|---18b---15--15b-----------------------------------------------------------|
G|------------------16----19--18--17----16b-----16b--------------------------|
D|------------------------------------------17------17----16--18b--17--------|
A|---------------------------------------------------------------------------|
E|---------------------------------------------------------------------------|

e|---------------------------------------------------------------------------|
B|---------------------------------------------------------------------------|
G|------------------17-------11---14---12---14-------------------12----------|
D|--17------------------14----------------------12--14---12--14-----14-------|
A|------17---19--------------------------------------------------------------|
E|---------------------------------------------------------------------------|
4:50
e|---19---19---19--19---21b--19--18b-17--15--17--17--15--17------------------|
B|-----------------------------------------------------------15--17----------|
G|---------------------------------------------------------------------------|
D|---------------------------------------------------------------------------|
A|---------------------------------------------------------------------------|
E|---------------------------------------------------------------------------|

e|---------------------------------------------------------------------------|
B|--16b-15----15------------------10-----------------------------------------|
G|---------16----16---15b--12-------------------------------------14b--------|
D|------------------------------------12---14----16---16/19--17--------12--14|
A|---------------------------------------------------------------------------|
E|---------------------------------------------------------------------------|
5:44
e|---------------19--19--19--19--19------------------------------------------|
B|------------------------------------19\17--15--15p1715---------------------|
G|----16b--16---------------------------------------------16---19--18--17----|
D|---------------------------------------------------------------------------|
A|---------------------------------------------------------------------------|
E|---------------------------------------------------------------------------|

e|---------------------------------------------------------------------------|
B|---------------------------------------------------------------------17----|
G|--17b----------------------------------------------------------16-16-------|
D|---------------------------------------------------------14--14------------|
A|----------------------------14--12--------------14b---14-------------------|
E|---------12----12---14--14------------10--12-------------------------------|

e|-----19---17/19-19---18b-15--15--17----------20--21b-20\19--19b-19b-19b-19b|
B|--17----------------------------------15--17-------------------------------|
G|---------------------------------------------------------------------------|
D|---------------------------------------------------------------------------|
A|---------------------------------------------------------------------------|
E|---------------------------------------------------------------------------|

e|-22b--22b--22b--22b--21b--21--20b-20---------------------------------------|
B|--------------------------------------15--17-17--15--17-17--15--17-17------|
G|---------------------------------------------------------------------------|
D|---------------------------------------------------------------------------|
A|---------------------------------------------------------------------------|
E|---------------------------------------------------------------------------|

e|---------------------------------------------------------------------------|
B|-15--17-17--15--17-17---15--17-17--15--17-17---15--17-17--17-17-17-17-17-17|
G|---------------------------------------------------------------------------|
D|---------------------------------------------------------------------------|
A|---------------------------------------------------------------------------|
E|---------------------------------------------------------------------------|

e|---------------------------------------------------------------------------|
B|--15-15-15--15/17---15b15----15b15---15b15----15b15---15b15---15b15--15b15-|
G|-------------------------14-------14------14------14------14------14-----14|
D|---------------------------------------------------------------------------|
A|---------------------------------------------------------------------------|
E|---------------------------------------------------------------------------|

e|-------------------------------13b-----10------14--12--12------------------|
B|-16b----15------15------------------12----12--------------15---15--14--13--|
G|-----16----16--------------------------------------------------------------|
D|--------------------12--14-------------------------------------------------|
A|---------------------------------------------------------------------------|
E|---------------------------------------------------------------------------|

e|---------------------------------------------------------------------------|
B|---13--13--13--13--13------------------------------------------------------|
G|------------------------------------14--14b--12--14----------16b-----------|
D|------------------------14--14--16-------------------12--14-------14-------|
A|---------------------------------------------------------------------------|
E|---------------------------------------------------------------------------|

e|---------------------------------------------------------------------------|
B|-------------------------15--14--13--13--13------15---17-15-17--17-15-17-17|
G|----------14--14b--12------------------------------------------------------|
D|--14--16-------------------------------------------------------------------|
A|---------------------------------------------------------------------------|
E|---------------------------------------------------------------------------|

e|---------------------------------------------------------------------------|
B|--17-15-17---17-15-17-17--17-15-17-17-15-17-17--17-15-17--19--21b--20--20b-|
G|---------------------------------------------------------------------------|
D|---------------------------------------------------------------------------|
A|---------------------------------------------------------------------------|
E|---------------------------------------------------------------------------|

e|--17b-----------20b--------------------------------------------------------|
B|------15--17---------------------------------------------------------------|
G|--------------------------------------------------------15b--15b--13-------|
D|------------------------------14----14---14-------14-----------------14----|
A|---------------------------------------------------------------------------|
E|-----------------------12--------------------20----------------------------|

This is my first tab, so please be kind =)
In my opinion, it sounds like on the album

| /  slide up
| \  slide down
| h  hammer-on
| p  pull-off
| ~  vibrato
| +  harmonic
| x  Mute note
===============================================================================

Добавлено: 22.10.2013
Другие материалы по этой песне:
  • Аккорды и текст

Страница создана 13.10.2013
http://primanota.ru/john-frusciante/before-the-beginning-chords.htm
Привет, Гость.
Предлагаем пройти революционный курс по гитаре.
Подарок от PrimaNota.Ru, забирай!