PrimaNota.ru - самый крупный в мире бесплатный архив песенных текстов, аккордов, табулатур и нот


John Frusciante - Breath - таба, видео

Регистрация Запомнить меня
Войти через:  Facebook Google Twitter Vk Yandex Mail.ru

John Frusciante - Breath - таба, видео

Печатать
Просмотров: 116
tuned down 1/2 step
html stuff on www.fea.fr.st

0:00
Part A
  C                                 A
|-------3-------------------------|---------0-------------0---------|
|---------------1-----------------|---------------------------------|
|---------0-----------------------|-------------2-----------2-------|
|---------------------------------|---------------------------------|
|-3---------------3-------2-------|-0-------------------------------|
|---------------------------------|---------------------------------|

  D7                                G7
|-------2-------------------------|-------1-------------------------|
|---------------1-----------------|---------------0-------0-------0-|
|-----------------------2-------0-|---------------------------------|
|-0-------0-------0-------0-------|---------------------------------|
|---------------------------------|---------------------------------|
|---------------------------------|-3-------3-------3-------3-------|

  C                                 A
|-------3-------------------------|---------0-------------0---------|
|---------------1-----------------|---------------------------------|
|---------0-----------------------|-------------2-----------2-------|
|---------------------------------|---------------------------------|
|-3---------------3-------2-------|-0-------------------------------|
|---------------------------------|---------------------------------|

  D7                                G7
|-------2-------------------------|-------1-------1---------1-------|
|---------------1-----------------|---------------------------------|
|---------------------------------|---------------------------------|
|-0-------0-----------------------|---------------------------------|
|---------------------------------|-------------------------------0-|
|---------------------------------|---------3-------------3---------|

  Am              G7                F               Em
|---------0---------------1-------|---------0---------------0-------|
|---------1---------------0-------|---------1---------------0-------|
|---------------------------------|-----------------0-----0---------|
|---------------------------------|-3-----3---------2-----2---------|
|-0-----0-------0-----------------|---------------------------------|
|-----------------3-----3---------|---------------------------------|

  D
|---------------------------------|---------------------------------|
|-3-------------------------------|---------------------------------|
|-2-------------------------------|---------------------------------|
|-0-------------------------------|---------------------------------|
|---------------------------------|---------------------------------|
|---------------------------------|---------------------------------|

  Am              G7                F               Em
|---------0---------------1-------|---------0---------------0-------|
|---------1---------------0-------|---------1---------------0-------|
|---------2---------------0-------|---------2---------------0-------|
|---------------------------------|---------------------------------|
|-0-----0-------0-----------------|---------------------------------|
|-----------------3-----3-------3-|-1-----1---------0-----0---------|

  D
|---------------------------------|---------------------------------|
|-3-------------------------------|---------------------------------|
|-2-------------------------------|---------------------------------|
|-0-------------------------------|---------------------------------|
|---------------------------------|---------------------------------|
|---------------------------------|---------------------------------|
end of part A
====================================================================
0:34
Part B
  C
|---------------------------------|---------------------------------|
|-1---------------1-----------1---|-----1---1-------1-------1-------|
|-0---------------0-----------0---|-----0---0-------0-------0---0---|
|-2---------------2-----------2---|-----2---2-------2-------2---0---|
|-3---------------3-----------3---|-----3---3-------3-------3---0---|
|---------------------------------|---------------------------------|

  E
|-0---------------0-------0---0---|-----------------0-------0---0---|
|-0---------------0-------0---0---|-----------------0-------0---0---|
|-1---------------1-------1---1---|-----------------1-------1---1---|
|-2---------------2-------2---2---|-----------------2-------2---2---|
|-2---------------2-------2---2---|-----------------2-------2---2---|
|-0---------------0-------0---0---|-----------------0-------0---0---|

  F                                 Am
|---------------------------------|-0---------------0---------------|
|-1---------------1-------1---1---|-1---------------1-------1-------|
|-2---------------2-------2---0---|-2---------------2-------2---0---|
|-3---------------3-------3---0---|-2---------------2-------2---0---|
|-3---------------3-------3---0---|-0---------------0-------0---0---|
|-1---------------1-------1-------|---------------------------------|

  F
|---------------------------------|---//--
|-1-------------------------------|---//--
|-2-------------------------------|---//--
|-3-------------------------------|---//--
|-3-------------------------------|---//--
|-1-------------------------------|---//--

0:54
|---------------------------------|---------------------------------|
|---------------------------------|---------------------------------|
|---------------------------------|---------------------------------|
|---------------------------------|---------------------------------|
|-3-------------------------------|-4-------------------------------|
|---------------------------------|---------------------------------|

                                    E    > fade in
|---------------------------------|-0-------------------------------|
|---------------------------------|-0-------------------------------|
|---------------------------------|-1-------------------------------|
|---------------------------------|-2----keep-strumming-------------|
|-5-------------------------------|-2-------------------------------|
|---------------------------------|-0-------------------------------|

                  E7
|-0---0---0-----------------------|---------------------------------|
|-0---0---0-------3-------3---3---|-3---3---3-------3---3---3-------|
|-1---1---1-------1-------1---1---|-1---1---1-------1---1---1---0---|
|-2---2---2-------2-------2---2---|-2---2---2-------2---2---2---0---|
|-2---2---2-------2-------2---2---|-2---2---2-------2---2---2---0---|
|-0---0---0-------0-------0---0---|-0---0---0-------0---0---0-------|

  F                                 Am
|---------------------------------|-0-------0---0---0-------0-------|
|-1-------1---1---1-------1-------|-1-------1---1---1-------1-------|
|-2-------2---2---2-------2---0---|-2-------2---2---2-------2---0---|
|-3-------3---3---3-------3---0---|-2-------2---2---2-------2---0---|
|-3-------3---3---3-------3---0---|-0-------0---0---0-------0---0---|
|-1-------1---1---1-------1-------|---------------------------------|

  F                                 E
|---------------------------------|-0-------0---0---0-------0-------|
|-1-------1---1---1-------1-------|-0-------0---0---0-------0-------|
|-2-------2---2---2-------2---0---|-----------------------------0---|
|-3-------3---3---3-------3---0---|-2-------2---2---2-------2---0---|
|-3-------3---3---3-------3---0---|-2-------2---2---2-------2---0---|
|-1-------1---1---1-------1-------|-0-------0---0---0-------0-------|

  F                                 Am
|---------------------------------|-0-------0---0---0-------0-------|
|-1-------1---1---1-------1-------|-1-------1---1---1-------1-------|
|-2-------2---2---2-------2---0---|-2-------2---2---2-------2---0---|
|-3-------3---3---3-------3---0---|-2-------2---2---2-------2---0---|
|-3-------3---3---3-------3---0---|-0-------0---0---0-------0---0---|
|-1-------1---1---1-------1-------|---------------------------------|

  G                                 F
|-3-------3---3---3-------3---3---|-3--/--5--~----------------------|
|-3-------3---3---3-------3---3---|---------------------------------|
|-4-------4---4---4-------4---4---|---------------------------------|
|-5-------5---5---5-------5---5---|---------------------------------|
|-5-------5---5---5-------5---5---|---------------------------------|
|-3-------3---3---3-------3---3---|---------------------------------|

end of part B
====================================================================

+ part A

====================================================================
2:00
  D
|---------------------------------|---------------------------------|
|-3---------------3---------------|-3---------------3---------------|
|.2-------------0h2-------------0h|-2-------------0h2---------------|
|.0---------------0---------------|-0---------------0---------------|
|---------------------------------|---------------------------------|
|---------------------------------|---------------------------------|

  F                                                    play 4 times
|---------------------------------|---------------------------------|
|---------------------------------|-------------------------------*-|
|---------------------------------|-------------------------------0h|
|---------------------------------|--------------------------------.|
|---------------------------------|---------------------------------|
|-1-------------------------------|---------------------------------|
* don't play hammer last time

=====================================================================
2 guitars
2:29
|---------------------------------|---------------------------------|
|---------------------------------|---------------------------------|
|---------------------------------|---------------------------------|
|---------------------------------|-----3-/-4-----------------------|
|-5-----------------------3-------|-----------------3-----------2---|
|---------1-----3/5---------------|---------------------------------|
|
|---------------------------------|---------------------------------|
|---------------------------------|---------------------------------|
|---------------------------------|-----------5-/-7-----------------|
|---------------------------------|---------------------------------|
|---------------------------------|---------------------------------|
|---------------------------------|---------------------------------|


|---------------------------------|---------------------------------|
|---------------------------------|---------------------------------|
|---------------------------------|-----5-/-7-----------------------|
|---------------------------------|-----------------5--/--7-----3-/-|
|-3-----------------------3-/-5---|-x-------------------------------|
|---------3-------1---------------|---------------------------------|
|
|-7-/-8---------------------------|-------8-10--------------13------|
|-----------------6-/-8-----------|-10------------------------------|
|---------------------------------|---------------------------------|
|---------------------------------|---------------------------------|
|---------------------------------|---------------------------------|
|---------------------------------|---------------------------------|


|---------------------------------|---------------------------------|
|---------------------------------|---------------------------------|
|-----------------5-/-7-----------|---------------------------------|
|-5---------------------------5-/-|-7-------3-/-5-------5---------3-|
|-------3-5-3---------------------|---------------------------------|
|---------------------------------|---------------------------------|
|
|-10~-------------8-------10------|---------------------------------|
|---------------------------------|-------8-----6-------------------|
|---------------------------------|-------------------------7-----x-|
|---------------------------------|---------------------------------|
|---------------------------------|---------------------------------|
|---------------------------------|---------------------------------|



|---------------------------------|---------------------------------|
|---------------------------------|---------------------------------|
|-----------------5-/-7-----------|---------------------------------|
|-----------------------------5-/-|-7-------3-/-5-------5---------3-|
|-3-------5-----------------------|---------------------------------|
|---------------------------------|---------------------------------|
|
|----------)~---------------------|---------------------------------|
|---------6-----------------------|---------------------------------|
|-5h7---x-------------------------|---------------------------------|
|---------------------3-----------|---------------------------------|
|-----------------------------5---|-------------------------3-------|
|---------------------------------|-----------------3---------------|



|---------------------------------|---------------------------------|
|---------------------------------|---------------------------------|
|---------------------------------|---------------------------------|
|---------------------------------|-------------------------3-/-5---|
|-3-------5-----------------------|---------------------------------|
|-------------1-----------3-------|-----4-----------5---------------|
|
|---------------------------------|---------------------------------|
|---------------------------------|---------------------------------|
|---------------------------------|---------5---------------7-------|
|---------------------------------|---------------------------------|
|---------------------------------|---------------------------------|
|---------------------------------|---------------------------------|


|---------------------------------|---------------------------------|
|---------------------------------|---------------------------------|
|---------------------5-/-7-------|---------------------------------|
|-----------------------------x---|-5-/-7---x---3-/-5-----x---------|
|---------3-/-5---x---------------|-------------------------2-------|
|---------------------------------|---------------------------------|
|
|---------------------------------|-----8---------------------------|
|-----------)---------------------|-----------------6---------------|
|---------10------10--------------|-------------------------7-------|
|---------------------------------|---------------------------------|
|---------------------------------|---------------------------------|
|---------------------------------|---------------------------------|


|---------------------------------|---------------------------------|
|---------------------------------|---------x---6-/-7---8---8---6---|
|---------------------5-/-7-------|---------x-----------------------|
|-----------------------------x---|-3-/-5---------------------------|
|-3-------4-/-5---x---------------|---------------------------------|
|---------------------------------|---------------------------------|
|                            )
|-------------------------10------|---------------------------------|
|---------------------------------|-----13--------------------------|
|-5-------5---5-------------------|---------------------------------|
|---------------------------------|---------------------------------|
|---------------------------------|---------------------------------|
|---------------------------------|---------------------------------|


|---------------------------------|---------------------------------|
|---------------------------------|---------------------------------|
|---------------------5-/-7-------|---------------------------------|
|-----------------------------5-/-|-7---3-/-5-----------5-----------|
|---------3-/-5---x---------------|-----------------------------3---|
|---------------------------------|---------------------------------|
|
|---------------/-15------13------|---------------------------------|
|---------------------------------|---------15----------------------|
|---------------------------------|-----------------5-------7-------|
|---------------------------------|-------------------------------3-|
|---------------------------------|---------------------------------|
|---------------------------------|---------------------------------|


|---------------------//----------|---------------------------------|
|---------------------//----------|-----------------3---------------|
|---------------------//----------|-----------------5---------------|
|---------------------//----------|---------------------------------|
|---------5-----------//----------|---------------------------------|
|---------------------//----------|---------------------------------|
|
|---------------------//----------|---------------------------------|
|---------------------//----------|---------------------------------|
|---------------------//----------|---------------------------------|
|---------------------//----------|---------------------------------|
|---------5-----------//----------|---------------------------------|
|---------------------//----------|---------------------------------|

====================================================================


3:06
w/ part A
  C                                 A
|---------------------------------|---------------------------------|
|---------------------------------|---------------------------------|
|---------------------------------|---------------------------------|
|---------------------------------|---------------------------------|
|---------------------------------|---------------------------------|
|---------------------------------|---------------------------------|

  D7                                G7
|---------------------------------|---------------------------------|
|---------------------------------|-10--p-8-------------8-----------|
|---------------------------------|---------------------------------|
|---------------------------------|---------------------------------|
|---------------------------------|---------------------------------|
|---------------------------------|---------------------------------|

  C                                 A
|-----------------10------10)-10--|-----------------------------8---|
|-10--/-13----13------13----------|-13--10-10-10--------8--/10------|
|---------------------------------|---------------------------------|
|---------------------------------|---------------------------------|
|---------------------------------|---------------------------------|
|---------------------------------|---------------------------------|

  D7                                G7
|/12------------------------------|---------------------------------|
|---------------------------------|---------------------------------|
|---------------------------------|---------------------------------|
|---------------------------------|---------------------------------|
|---------------------------------|---------------------------------|
|---------------------------------|---------------------------------|

  Am              G7                F               Em
|-------10---12---13---12----10---|-----------------10---------12---|
|-13------------------------------|-13----10---13---------13--------|
|---------------------------------|---------------------------------|
|--triplets-....................................................----|
|---------------------------------|---------------------------------|
|---------------------------------|---------------------------------|

  D
|---------------------------------|---------------------------------|
|-13--------------10--------------|---------------------------------|
|---------------------------------|-10--------------9---------------|
|---------------------------------|---------------------------------|
|---------------------------------|---------------------------------|
|---------------------------------|---------------------------------|

  Am              G7                F               Em
|---------------------------------|-----------------12--------------|
|---------13----10----------------|-13---10--------------13----10---|
|-----------------------x-10--9---|------------10-------------------|
|---------------------------------|---------------------------------|
|---------------------------------|-triplets.....................---|
|---------------------------------|---------------------------------|

  D
|-10------------------------------|---------------------------------|
|---------------------------------|---------------------------------|
|---------------------------------|---------------------------------|
|---------------------------------|---------------------------------|
|---------------------------------|---------------------------------|
|---------------------------------|---------------------------------|

3:40
+part B

www.fea.fr.st

     
Добавлено: 02.12.2013
Другие материалы по этой песне:
  • Аккорды и текст

Страница создана 24.11.2013
http://primanota.ru/john-frusciante/breath-chords.htm
Привет, Гость.
Предлагаем пройти революционный курс по гитаре.
Подарок от PrimaNota.Ru, забирай!